VGJam Tabs Tetris Attack
Tetris Attack
"Yoshi's theme" - Guitar tab
Platform(s):Super NES
Tabbed by:Deezer
Last modified:1999-05-12
Print it:Original file (.TXT)
Hear it:MIDI file
#----------------------------------PLEASE NOTE---------------------------------#
#This file is the author's own work and represents their interpretation of the #
#song. You may only use this file for private study, scholarship, or research. #
#------------------------------------------------------------------------------#

Tetris Attack (SNES)
"Yoshi's theme"

Originally composed by: ?
------------------------------------------------------------------------------
Tabbed by Deezer (deezer@usa.net)
For http://www.kontek.net/vgjam/
------------------------------------------------------------------------------

Standard tuning - EADGBe


-8----7--8--7----3----5----3--5--3---------1----0--1--0-----------------------
--------------------------------------1--------------------1----3--1--0--1--3-
------------------------------------------------------------------------------
------------------------------------------------------------------------------
------------------------------------------------------------------------------
------------------------------------------------------------------------------

--8----7--8--7----3----5----3--5--3---------1--0-----0--1--0-----------
---------------------------------------1----------3-----------3--0--1--
-----------------------------------------------------------------------
-----------------------------------------------------------------------
-----------------------------------------------------------------------
-----------------------------------------------------------------------

-5----3--1--3---------1----0-----0----3----5----3--1--3----8----8----7--5--7-
------------------1-----------3----------------------------------------------
-----------------------------------------------------------------------------
-----------------------------------------------------------------------------
-----------------------------------------------------------------------------
-----------------------------------------------------------------------------

--8----7--8--7----8----10----8--7--8----12----12----10--8--7----8--10--10--
---------------------------------------------------------------------------
---------------------------------------------------------------------------
---------------------------------------------------------------------------
---------------------------------------------------------------------------
---------------------------------------------------------------------------

Repeat from beginning.


Last revised: 5/12/99

VGJam Tabs Tetris Attack - "Yoshi's theme"
Tabs database last modified Tuesday, 01-Nov-2016 19:14:53 UTC.
Copyright © 1999 - 2016 VideoGameJam.com. All rights reserved.