VGJam Tabs U.N. Squadron
U.N. Squadron
"Front Line Base" - Guitar tab
Platform(s):Super NES
Tabbed by:Joe Stromstad
Last modified:2007-04-22
Print it:Original file (.TXT)
Hear it:MIDI file
SNES
U.N. Squadron (Area 88)
Front Line Base
Tabbed by Joe Stromstad
http://www.myspace.com/matadorwang
http://www.myspace.com/blackpearl
http://www.myspace.com/elmatadorwangmachino
http://www.myspace.com/bastardsonsofbangkok
http://www.myspace.com/theversusmode
What, I can't promote my bands?

This here be my first and most likely only tab.  If there's something wrong or you want to express your love, shoot me an email over at allhailal@hotmail.com with subject line "U R AWESOME WANG LOLOLOLOLOLOL ^_^"

I've been trying to figure out this song for 7 years, and one day a couple weeks ago I finally sat down and attempted to tab it out.  It should coincide perfectly with the existing Front Line Base bass tab here on Video Game Jam.



verse

----------12---------------------------------
14------12--15-14-----12----------12---------
-------------------------14-13-14----14-13-11
---------------------------------------------
---------------------------------------------
---------------------------------------------

----------12----------------------------------
14------12--15-14-----12----------------------
-------------------------14--13--11-----11--13
-------------------------------------14-------
----------------------------------------------
----------------------------------------------

bridge

-----------------------------------------------
----------15--14----14-12----------------------
14----13--------------------14-----13--11------
------------------------------------------14-11
-----------------------------------------------
-----------------------------------------------

-------------------------------------------------
----------------15-14----12-14--15---14--12----12
11-13-14----13------------------------------14---
-------------------------------------------------
-------------------------------------------------
-------------------------------------------------

chorus

-------------------------15-14--------------------14---
14-15-17------14---------------17-15-----------------17
------------------16-15------------------16-14-13------
-------------------------------------------------------
-------------------------------------------------------
-------------------------------------------------------

------------------------15-14-----14-----16-17-16-------
14-15-17------14---------------17---------------------14
------------------16-15---------------------------------
--------------------------------------------------------
--------------------------------------------------------
--------------------------------------------------------

SUPER CHORUS

17------16-17-19-17---------16-17----16----16-----21
-------------------------19-------------19----------
----------------------------------------------------
----------------------------------------------------
----------------------------------------------------
----------------------------------------------------

17------16-17-19-17---------16-17------21--19----17b^(19)
-------------------------19------------------------------
---------------------------------------------------------
---------------------------------------------------------
---------------------------------------------------------
---------------------------------------------------------

and like DJ Eric says on the bass tab of the same song, repeat forever.

11/30/2006

VGJam Tabs U.N. Squadron - "Front Line Base"
Tabs database last modified Tuesday, 01-Nov-2016 19:14:53 UTC.
Copyright © 1999 - 2016 VideoGameJam.com. All rights reserved.