VGJam Tabs U.N. Squadron
U.N. Squadron
"Front Line Base" - Bass tab
Platform(s):Super NES
Tabbed by:DJ Erik
Last modified:2003-02-19
Print it:Original file (.TXT)
Hear it:MIDI file
U.N. Squadron (SNES)
Front Line Base

Tabbed By: DJ Erik
E-Mail: djerik4@yahoo.com
www.angelfire.com/games4/nintygalaxy/main.html

Tuning: EADG

G|--------------------------------|--------------------------------|
D|0---0---0---0---0---0---0---0---|0---0---0---0---0---0---0---0---|
A|--------------------------------|--------------------------------|
E|--------------------------------|--------------------------------|

G|--------------------------------|--------------------------------|
D|2---2---2---2---2---2---2---2---|2---2---2---2---2---2---2---2---|
A|--------------------------------|--------------------------------|
E|--------------------------------|--------------------------------|

G|--------------------------------|--------------------------------|
D|0---0---0---0---0---0---0---0---|0---0---0---0---0---0---0---0---|
A|--------------------------------|--------------------------------|
E|--------------------------------|--------------------------------|

G|--------------------------------|--------------------------------|
D|2---2---2---2---2---2---2---2---|2---2---2---2---2---2---2---2---|
A|--------------------------------|--------------------------------|
E|--------------------------------|--------------------------------|

G|--------------------------------|--------------------------------|
D|0---0---0---0---0---0---0---0---|0---0---0---0---0---0---0---0---|
A|--------------------------------|--------------------------------|
E|--------------------------------|--------------------------------|

G|--------------------------------|--------------------------------|
D|2---2---2---2---2---2---2---2---|2---2---2---2---2---2---2---2---|
A|--------------------------------|--------------------------------|
E|--------------------------------|--------------------------------|

G|--------------------------------|--------------------------------|
D|0---0---0---0---0---0---0---0---|0---0---0---0---0---0---0---0---|
A|--------------------------------|--------------------------------|
E|--------------------------------|--------------------------------|

G|--------------------------------|--------------------------------|
D|2---2---2---2---2---2---2---2---|2---2---2---2---2---2---2---2---|
A|--------------------------------|--------------------------------|
E|--------------------------------|--------------------------------|

G|------------------------2-------|----------------2---1-----------|
D|4-----------2-------------------|--------------------------------|
A|--------------------------------|--------------------------------|
E|--------------------------------|--------------------------------|

G|------------------------2-------|----------------2---1-----------|
D|4-----------2-------------------|--------------------------------|
A|--------------------------------|--------------------------------|
E|--------------------------------|--------------------------------|

G|------------------------2-------|----------------2---3-----------|
D|4-----------2-------------------|--------------------------------|
A|--------------------------------|--------------------------------|
E|--------------------------------|--------------------------------|

G|4---4---4---4---4---4---4---4---|--------------------9-----------|
D|--------------------------------|----2-------2---------------2---|
A|--------------------------------|--------------------------------|
E|--------------------------------|--------------------------------|

G|2---2---2---2---2---2---1---0---|------------------------1---3---|
D|--------------------------------|4---4---4---4---4---4-----------|
A|--------------------------------|--------------------------------|
E|--------------------------------|--------------------------------|

G|4---4---4---4---4---3---4---5---|6---6---6---6---6---6---6---6---|
D|--------------------------------|--------------------------------|
A|--------------------------------|--------------------------------|
E|--------------------------------|--------------------------------|

G|--------------------------------|--------------------------------|
D|4---4---4---4---3---3---3---3---|2---2---2---2---1---1---1---1---|
A|--------------------------------|--------------------------------|
E|--------------------------------|--------------------------------|

G|--------------------------------|--------------------------------|
D|0---0---0---0---0---0---0---0---|2---2---2---2-------2-------3---|
A|--------------------------------|--------------------------------|
E|--------------------------------|--------------------------------|

G|--------------------------------|--------------------------------|
D|4---4---4---4---3---3---3---3---|2---2---2---2---1---1---1---1---|
A|--------------------------------|--------------------------------|
E|--------------------------------|--------------------------------|

G|--------------------------------|--------------------9-----------|
D|0---0---0---0---0---0---0---0---|2---2---2-------------------1---|
A|--------------------------------|--------------------------------|
E|--------------------------------|--------------------------------|

Repeat forever. Rock on, my fellow U.N. Squadron fans.

VGJam Tabs U.N. Squadron - "Front Line Base"
Tabs database last modified Tuesday, 01-Nov-2016 19:14:53 UTC.
Copyright © 1999 - 2016 VideoGameJam.com. All rights reserved.