VGJam Tabs U.N. Squadron
U.N. Squadron
"Minks" - Bass tab
Platform(s):Super NES
Tabbed by:DJ Erik
Last modified:2003-02-19
Print it:Original file (.TXT)
Hear it:MIDI file
U.N. Squadron (SNES)
Minks

Tabbed By: DJ Erik
E-Mail: djerik4@yahoo.com
www.angelfire.com/games4/nintygalaxy/main.html

Tuning: EADG

G|----------------------------------|------------------------------|
D|--3-----------3---3-----------3---|------3-------3---------------|
A|----------------------------------|------------------1-------3---|
E|----------------------------------|------------------------------|

G|----------------------------------|------------------------------|
D|--3-----------3---3-----------3---|------3-------3---------------|
A|----------------------------------|------------------1-------3---|
E|----------------------------------|------------------------------|

G|----------------------------------|------------------------------|
D|--3-----------3---3---1-----------|--------------------1---------|
A|----------------------------------|------------4---4-------------|
E|----------------------------------|------------------------------|

G|--------------1-------1-------1---|--0---5-------------3---1-----|
D|----------------------------------|----------------------------3-|
A|----------------------------------|------------------------------|
E|----------------------------------|------------------------------|

G|----------------------------------|------------------------------|
D|--3-----------3---3---1-----------|--------------------1---------|
A|----------------------------------|------------4---4-------------|
E|----------------------------------|------------------------------|

G|--------------1-------1-------1---|------5-------------5---5-----|
D|----------------------------------|------------------------------|
A|----------------------------------|--3-------------------------4-|
E|----------------------------------|------------------------------|

G|----------------------------------|----------------------------1-|
D|----------------------------------|----------------------1-------|
A|--------------4---4-----------4---|------4-------4---4-----------|
E|----------------------------------|------------------------------|

G|--------------1---1-----------1---|----1-------1---1---3-------4-|
D|----------------------------------|------------------------------|
A|----------------------------------|------------------------------|
E|----------------------------------|------------------------------|

G|--------------4---4-----------4---|----4-------4---4---3---1-----|
D|----------------------------------|----------------------------4-|
A|----------------------------------|------------------------------|
E|----------------------------------|------------------------------|

G|----------------------------------|------------------------------|
D|--------------4---4-----------4---|----4-------2---2---1---0-----|
A|----------------------------------|----------------------------4-|
E|----------------------------------|------------------------------|

G|----------------------------------|------------------------------|
D|----------------------------------|------------------------------|
A|--------------4---4-----------4---|----4-------4---4-------------|
E|----------------------------------|------------------------------|

G|--5-----------3-----------1-------|------0-----------------------|
D|----------------------------------|------------------------------|
A|----------------------------------|------------------------------|
E|----------------------------------|------------------------------|

G|----------------------------------|------------------------------|
D|----3---3-------3---3---3---1-----|----------------------------1-|
A|----------------------------------|4-------4-------4---4---4-----|
E|----------------------------------|------------------------------|

G|----------------------------------|------------------------------|
D|3-------3-------3---3---3---1-----|----------------------------1-|
A|----------------------------------|4-------4-------4---4---4-----|
E|----------------------------------|------------------------------|

G|----------------------------------|------------------------------|
D|3-------3-------3---3---1---------|------------------------------|
A|----------------------------4-----|3---1---1---1---1---1-------1-|
E|----------------------------------|------------------------4-----|

G|----------------------------------|------------------------------|
D|----------------------------------|------------------------0---2-|
A|3-------3-------3---3---3---3-----|3-------3-------3---3---------|
E|----------------------------------|------------------------------|

G|----------------------------------|------------------------------|
D|3-------3-------3---3---3---1-----|----------------------------1-|
A|----------------------------------|4-------4-------4---4---4-----|
E|----------------------------------|------------------------------|

G|----------------------------------|------------------------------|
D|3-------3-------3---3---3---1-----|----------------------------1-|
A|----------------------------------|4-------4-------4---4---4-----|
E|----------------------------------|------------------------------|

G|----------------------------------|------------------------------|
D|3-------3-------3---3---1---------|------------------------------|
A|----------------------------4-----|3---1---1---1---1---1-------1-|
E|----------------------------------|------------------------4-----|

G|----------------------------------|--------5-------5-------5-----|
D|----------------------------------|------------------------------|
A|3-------3-------1---1---1---1-----|1-----------------------------|
E|----------------------------------|------------------------------|

As usual, repeat forever. 

VGJam Tabs U.N. Squadron - "Minks"
Tabs database last modified Tuesday, 01-Nov-2016 19:14:53 UTC.
Copyright © 1999 - 2016 VideoGameJam.com. All rights reserved.