VGJam Tabs Azure Dreams
Azure Dreams
"Main theme" - Guitar tab
Platform(s):PlayStation
Tabbed by:zaneDarklight
Last modified:2001-07-04
Print it:Original file (.TXT)
Azure Dreams Tab [Azure Dreams for the PSX]
by: zaneDarklight @ Wan Zafran
mail: wzafran@yahoo.com

If you have any comments, suggestions or changes, please 
send 'em to my 
mail address! Take note that this is my 
first tab, so don't expect anything 
too accurate (but it 
should sound somewhat similar). If you have any 
improvisations, 
please mail me!

e-----9--9-----7--6--7------6-------------------------------
B--7---------------------9----7-----------------------------
G---------------------------------9-------------------------
D-----------------------------------------------------------
A-----------------------------------------------------------
E-----------------------------------------------------------

e-----9--9-----7--6--7------6-------------------------------
B--7---------------------9-----7--9-------------------------
G-----------------------------------------------------------
D-----------------------------------------------------------
A-----------------------------------------------------------
E-----------------------------------------------------------


e--------------------------------9--------------------------
B-9--11--12--11--12---9--11--12----12h11p12-11-9--7-7-9-11--
G-----------------------------------------------------------
D-----------------------------------------------------------
A-----------------------------------------------------------
E-----------------------------------------------------------

e-----------------------------------------------------------
B-7-9-11----9~--11/9/11-------------------------------------
G-----------------------------------------------------------
D-----------------------------------------------------------
A-----------------------------------------------------------
E-----------------------------------------------------------

 2001 Wan Zafran. Azure Dreams is a property of Konami.

VGJam Tabs Azure Dreams - "Main theme"
Tabs database last modified Tuesday, 01-Nov-2016 19:14:53 UTC.
Copyright © 1999 - 2016 VideoGameJam.com. All rights reserved.