VGJam Tabs Bloody Roar
Bloody Roar
"Uriko's theme" - Guitar tab
Platform(s):PlayStation
Tabbed by:IssacV
Last modified:2001-12-30
Print it:Original file (.TXT)
"Bored to death" (Urikos stage) Bloody Roar, Playstation 
Tabbed by IssacV (Issac77995@yahoo.com ) 

I have some audio files up on the site above for 
this one and some others.

--------------------------------------------------------
--------------------------------------------------------
-------9------------------------------9-----------------
--9-10---10-9-10-----------------9-10---10-9-10---------
----------------------8------------------------------8--
--------------------------------------------------------

--------------------------------------------------
--------------------------------------------------
--/12b---16~~~-/9b---12~~~-/12b---16~~~-9b-r\-/9--
--------------------------------------------------
--------------------------------------------------
--------------------------------------------------

---------------------------------------------------------------------------------------
---------------------------------------------------------------------------------------
-----9b-r-7-9-9~~~~~-------------------------------------------------------------------
--7------------------9b-r--------------------------------------------------------------
--------------------------10-10~~10--8-10-10-10-8-10-10-10-10/12\10-8-10-8\7-----------
-----------------------------------------------------------------------------8-8~~~~~--

------------------------------------------------------------------------
-----------------------------------------------------------12-15-12-14--
-----------------11-14-11-12-14-12-11-------------11-12-14--------------
-/12----12-14-15----------------------14-11-12-14-----------------------
-----15-----------------------------------------------------------------
------------------------------------------------------------------------

-----------------------15-14b-r---------15/17-17-17~~-15p14-15~~~~--
------14--17--15b---r------------15~~~------------------------------
--14----------------------------------------------------------------
--------------------------------------------------------------------
--------------------------------------------------------------------
--------------------------------------------------------------------

--14h15p14---------------------------------------------------------------------
-----------17p14h15h17p15p14----15p14------------------------------------------
-----------------------------16-------16p14\12h14p12\11-12~~11-----------------
---------------------------------------------------------------14--12--11------
---------------------------------------------------------------------------12--
-------------------------------------------------------------------------------

-----------------------------------------------------------
--13b-r-13b-r-13b-r----------------------------------------
--------------------12~~~~10\9-10~~~9\7----7-7b-r-5--------
----------------------------------------10----------7~~~~--
-----------------------------------------------------------
-----------------------------------------------------------

-------------------------------------------------------------------------------------------
-------------------------------------------------------------------------------------------
---------------------------------------------------------------------------5h7p5p3\2-/7~~--
--5-7-7-7-5-7-7-7-5-7-5-7-5-3-5-3-------3-5-3-------7---3--------3h5h7p5p3-----------------
----------------------------------7-3-7-------7-3-7--------3h5h7---------------------------
-------------------------------------------------------------------------------------------

---------------------------------------------------------
---------------------------------------------------------
--5-7-/9~~~----------------------------------------------
---------------------------------------------------------
---------------------------------------------------------
---------------------------------------------------------

------------------------------------------------------------
------------------------------------------------------------
------------------------------------------------------------
---------------2---------------------2-1--------------------
--2-0-2---4-5------4-0-2-------------------2-4-------4-3-2--
-------------------------4-5-2-2-4-5-----5-----5-4-2--------

--------------------------------------------------------------
--------------------------------------------------------------
--------------------------------------------------------------
--------------------3-----------------------------------------
--------------3-5-----7-5-7-3---1---3-1--0-------------3-2-1--
--3-1-3---5-6-----6---------------3---------1-3-3-2-1---------

Remember to only bend string # 2 (B)
-----------------------------------------15--10--12---------15---10--12---17--------
--18b--15-17~~~~~~~~--18b--15-17--20b~~~~18b-13b-15b~~~~~~~-18b--13b-15b--20b~~~~~--
------------------------------------------------------------------------------------
------------------------------------------------------------------------------------
------------------------------------------------------------------------------------
------------------------------------------------------------------------------------

-----------------------------------------------------
-----------------------------------------------------
--/12b---16~~--/9b---12~~10h12p10\9-10~p9------------
------------------------------------------10-10~~~~--
-----------------------------------------------------
-----------------------------------------------------

---------------------------------12h13h15p13p12----12--------------------------------
------------------------12h13h15----------------15----15p13p12----12-----------------
---------------11h12h14----------------------------------------14----14p12-14b----r--
--/14-11h12h14-----------------------------------------------------------------------
-------------------------------------------------------------------------------------
-------------------------------------------------------------------------------------

-----------------------------------------------------
-----------------------------------------------------
--10h12p10\9-10~-9-10b-r-9-10~~~~~-------------------
-----------------------------------------------------
-----------------------------------------------------
-----------------------------------------------------

------------------------------------------------------------------------------------
------------------------------------------------------------------------------------
--------------------------------------11-14-11-12-11----------------11-14-11-12-11--
--12-14-15-12-14-15-12-14-15-12-14-15----------------15-14-12-14-15-----------------
------------------------------------------------------------------------------------
------------------------------------------------------------------------------------

--------------------------------------------------------------------14-17-14-15~~~~--
--------------------------12-15p12-14p12-------------------14-15-17------------------
-----------------11-12-14----------------14-12-11-12-14/16---------------------------
--15-14-12-14-15---------------------------------------------------------------------
-------------------------------------------------------------------------------------
-------------------------------------------------------------------------------------

--14---------17----------------------------------------------------------------
-----17-17b (17b)--17b---17b-r-15-17--15h17p15\14-------12--14--15------15-\---
--------------------------------------------------16~~~-14b-16b-17b----(17b)\--
-------------------------------------------------------------------------------
-------------------------------------------------------------------------------
-------------------------------------------------------------------------------

VGJam Tabs Bloody Roar - "Uriko's theme"
Tabs database last modified Tuesday, 01-Nov-2016 19:14:53 UTC.
Copyright © 1999 - 2016 VideoGameJam.com. All rights reserved.