VGJam Tabs Bust a Groove
Bust a Groove
"Capoera" - Guitar tab
Platform(s):PlayStation
Tabbed by:Orion
Last modified:2000-05-29
Print it:Original file (.TXT)
Bust a Groove - Capoera - 5/29/00
---------------------------------------------------------------
AIM - Norman Inc
Orion - 
---------------------------------------------------------------

Tuning : E A D G B E 	Time Signature: 4/4

 |       |       |       |        |       |       |       |        
|----3-3-7---7---5---3-5---5-7-8-|--10--1010--7-3-----------------|
|--------------------------------|----------------3---3-3---------|
|--------------------------------|--------------------------------|
|--------------------------------|--------------------------------|
|--------------------------------|--------------------------------|
|--------------------------------|--------------------------------|

 |       |       |       |        |       |       |       |        
|--3-3-3-7---7---5---3-5---5-7-8-|101010--108-7---3---------------|
|--------------------------------|--------------------------------|
|--------------------------------|--------------------------------|
|--------------------------------|--------------------------------|
|--------------------------------|--------------------------------|
|--------------------------------|--------------------------------|

 |       |       |       |        |       |       |       |        
|--3-3-3-7-7---7-5---3-5---5-7-8-|--101010107---3-----------------|
|--------------------------------|----------------3---3-3---------|
|--------------------------------|--------------------------------|
|--------------------------------|--------------------------------|
|--------------------------------|--------------------------------|
|--------------------------------|--------------------------------|

 |       |       |       |        |       |       |       |        
|--3-3-3-7---7---5---3-5---5-7-8-|1010--10108-7---3---------------|
|--------------------------------|--------------------------------|
|--------------------------------|--------------------------------|
|--------------------------------|--------------------------------|
|--------------------------------|--------------------------------|
|--------------------------------|--------------------------------|

VGJam Tabs Bust a Groove - "Capoera"
Tabs database last modified Tuesday, 01-Nov-2016 19:14:53 UTC.
Copyright © 1999 - 2016 VideoGameJam.com. All rights reserved.