VGJam Tabs Bust a Groove
Bust a Groove
"Frida" - Guitar tab
Platform(s):PlayStation
Tabbed by:Orion
Last modified:2000-05-29
Print it:Original file (.TXT)
Bust a Groove - Frida - 5/29/00
---------------------------------------------------------------
AIM - Norman Inc
Orion - 
---------------------------------------------------------------

Tuning : E A D G B E 	Time Signature: 4/4

 |       |       |       |        |       |       |       |        
|--------0-------5---0-----------|----0---1---3-------------------|
|--------------------------------|3---------------4---3---1---3---|
|--------------------------------|--------------------------------|
|--------------------------------|--------------------------------|
|--------------------------------|--------------------------------|
|--------------------------------|--------------------------------|

 |       |       |       |        |       |       |       |        
|--------------------------------|--------------------3---0-------|
|4-----3-----1-------------------|--------1---3---4---------3-1---|
|--------------------------------|----2---------------------------|
|--------------------------------|--------------------------------|
|--------------------------------|--------------------------------|
|--------------------------------|--------------------------------|

 |       |       |       |        |       |       |       |        
|--------0-------5---0-----------|----0---1---3-------------------|
|--------------------------------|3---------------4---3---1---3---|
|--------------------------------|--------------------------------|
|--------------------------------|--------------------------------|
|--------------------------------|--------------------------------|
|--------------------------------|--------------------------------|

 |       |       |       |        |       |       |       |        
|--------------------------------|--------------------3---0-------|
|4-----3-----1-------------------|--------1---3---4---------3-1---|
|--------------------------------|----2---------------------------|
|--------------------------------|--------------------------------|
|--------------------------------|--------------------------------|
|--------------------------------|--------------------------------|

 |       |       |       |        |       |       |       |        
|--------0---0-------------------|--------------------------------|
|----------------3---1-----------|3-----1-----0-------------------|
|--------------------------------|--------------------2-----------|
|--------------------------------|--------------------------------|
|--------------------------------|--------------------------------|
|--------------------------------|--------------------------------|

 |       |       |       |        |       |       |       |        
|--------------------------------|--------------------------------|
|--------0-------1-------3-------|1---0---------------------------|
|2-------------------------------|------------2-------0-----------|
|--------------------------------|--------------------------------|
|--------------------------------|--------------------------------|
|--------------------------------|--------------------------------|

 |       |       |       |        |       |       |       |        
|--------0---0-------------------|------0-----3---5---------------|
|----------------3---1-----------|3-------------------------------|
|--------------------------------|--------------------------------|
|--------------------------------|--------------------------------|
|--------------------------------|--------------------------------|
|--------------------------------|--------------------------------|

 |       |       |       |        |       |       |       |        
|0-----------0-------------------|0-----------0-----------4---4---|
|----3-1-3-------3-1-3-----------|----3-1-3-------3-1-3-----------|
|--------------------------------|--------------------------------|
|--------------------------------|--------------------------------|
|--------------------------------|--------------------------------|
|--------------------------------|--------------------------------|

 |       |       |       |        |       |       |       |        
|------------0-------------------|--------------------------------|
|----------------3---1-----------|3-----1-----0-------------------|
|--------------------------------|--------------------2-----------|
|--------------------------------|--------------------------------|
|--------------------------------|--------------------------------|
|--------------------------------|--------------------------------|

 |       |       |       |        |       |       |       |        
|--------------------------------|--------------------------------|
|--------0-------1-------3-------|1---0---------------------------|
|2-------------------------------|------------2-------0-----------|
|--------------------------------|--------------------------------|
|--------------------------------|--------------------------------|
|--------------------------------|--------------------------------|

 |       |       |       |        |       |       |       |        
|------------0-------------------|----0-------3---5---------------|
|----------------3---1-----------|3-------------------------------|
|--------------------------------|--------------------------------|
|--------------------------------|--------------------------------|
|--------------------------------|--------------------------------|
|--------------------------------|--------------------------------|

 |       |       |       |        |       |       |       |        
|0-----------0-------------------|--------------------------------|
|----0-----------0-----------0---|--------------------------------|
|------2-0---------2-0---------2-|0---0---0---0---2---------------|
|--------------------------------|--------------------------------|
|--------------------------------|--------------------------------|
|--------------------------------|--------------------------------|

VGJam Tabs Bust a Groove - "Frida"
Tabs database last modified Tuesday, 01-Nov-2016 19:14:53 UTC.
Copyright © 1999 - 2016 VideoGameJam.com. All rights reserved.