VGJam Tabs Bust a Groove
Bust a Groove
"Kelly" - Guitar tab
Platform(s):PlayStation
Tabbed by:Orion
Last modified:2000-05-29
Print it:Original file (.TXT)
Bust a Groove - Kelly - 5/29/00
---------------------------------------------------------------
AIM - Norman Inc
Orion - 
---------------------------------------------------------------

Tuning : E A D G B E 	Time Signature: 4/4

 |       |       |       |        |       |       |       |        
|--------5---2-------------------|------------2---0---2-----------|
|----------------3---0-------0---|3-------3-----------------------|
|--------------------------------|--------------------------------|
|--------------------------------|--------------------------------|
|--------------------------------|--------------------------------|
|--------------------------------|--------------------------------|

 |       |       |       |        |       |       |       |        
|----0---0-----0---------0-------|2-------------------2-----------|
|------------3---------------3---|----0---0---3-------------------|
|--------------------------------|--------------------------------|
|--------------------------------|--------------------------------|
|--------------------------------|--------------------------------|
|--------------------------------|--------------------------------|

 |       |       |       |        |       |       |       |        
|--------5---2-------------------|------------2---0---2-----------|
|----------------3---0-------0---|3-------3-----------------------|
|--------------------------------|--------------------------------|
|--------------------------------|--------------------------------|
|--------------------------------|--------------------------------|
|--------------------------------|--------------------------------|

 |       |       |       |        |       |       |       |        
|----0---0-----0---------0-------|5---2---0---0-------2-----------|
|------------3---------------3---|--------------------------------|
|--------------------------------|--------------------------------|
|--------------------------------|--------------------------------|
|--------------------------------|--------------------------------|
|--------------------------------|--------------------------------|

 |       |       |       |        |       |       |       |        
|5-----------2-------------0-----|5-----------2-------------0-----|
|------------------------3---3---|------------------------3---3---|
|--------------------------------|--------------------------------|
|--------------------------------|--------------------------------|
|--------------------------------|--------------------------------|
|--------------------------------|--------------------------------|

 |       |       |       |        |       |       |       |        
|5-----------2-------------0-----|7-----------7-------2-----------|
|------------------------3---3---|--------------------------------|
|--------------------------------|--------------------------------|
|--------------------------------|--------------------------------|
|--------------------------------|--------------------------------|
|--------------------------------|--------------------------------|

 |       |       |       |        |       |       |       |        
|5-----------2-------------0-----|5-----------2-------------0-----|
|------------------------3---3---|------------------------3---3---|
|--------------------------------|--------------------------------|
|--------------------------------|--------------------------------|
|--------------------------------|--------------------------------|
|--------------------------------|--------------------------------|

 |       |       |       |        |       |       |       |        
|5-----------2-------------0-----|5-------5---2-------------------|
|------------------------3---3---|--------------------------------|
|--------------------------------|--------------------------------|
|--------------------------------|--------------------------------|
|--------------------------------|--------------------------------|
|--------------------------------|--------------------------------|

VGJam Tabs Bust a Groove - "Kelly"
Tabs database last modified Tuesday, 01-Nov-2016 19:14:53 UTC.
Copyright © 1999 - 2016 VideoGameJam.com. All rights reserved.