VGJam Tabs Final Fantasy XI
Final Fantasy XI
"Longfall" - Guitar tab
Platform(s):PlayStation 2
Composed by:Nobuo Uematsu, Naoshi Mizuta, Kumi Tanioka
Soundtrack:Final Fantasy XI Original Soundtrack [SSCX-10069~70] (track D1-04)
Tabbed by:the_chuck
Last modified:2002-06-23
Print it:Original file (.TXT)
                   ~ Longfall ~
         (From the Final Fantasy XI OST)

Original Composition:   Nobuo Uematsu
          Tabulation:   the_chuck (gchuckyg@aol.com)
                        and tensionx

----------------------------------------------------------------------

Note:   I tabbed this on my own while listening to the MP3.
        I apologize for any errors there may be in it.

Tuning: Standard tuning

----------------------------------------------------------------------



e|--------------------------------------------------------|
B|---------------7---8-------8---7-----------(8)---(10)---|
G|---9---7---9-----------9-----------7---9----------------|
D|--------------------------------------------------------|
A|--------------------------------------------------------|
E|--------------------------------------------------------|

e|---7--------7---8---10---8---7--------8---7---|
B|-------10------------------------10-----------|
G|----------------------------------------------|
D|----------------------------------------------|
A|----------------------------------------------|
E|----------------------------------------------| 

e|--------------------------------------------------|
B|------------7--8-------8--7-----------------------|
G|---9--7--9----------9---------7--9---(7)----------|
D|-------------------------------------------(10)---|
A|--------------------------------------------------|
E|--------------------------------------------------|

e|-----------------------------------|
B|---------------------------7---8---|
G|---------------5---7---9-----------|
D|---9---7---9-----------------------|
A|-----------------------------------|
E|-----------------------------------|

Repeat twice:

e|-----------------------|
B|-------7---------------|
G|---9-------9---7---9---|
D|-----------------------|
A|-----------------------|
E|-----------------------|

NOTE: Those last five notes can also be played as seen below:

e|-------------------------|
B|-------------------------|
G|---9---11---9--------9---|
D|----------------12-------|
A|-------------------------|
E|-------------------------|

VGJam Tabs Final Fantasy XI - "Longfall"
Tabs database last modified Tuesday, 01-Nov-2016 19:14:53 UTC.
Copyright © 1999 - 2016 VideoGameJam.com. All rights reserved.