VGJam Tabs Bust a Groove
Bust a Groove
"Pinky" - Guitar tab
Platform(s):PlayStation
Tabbed by:Orion
Last modified:2000-05-29
Print it:Original file (.TXT)
Bust a Groove - Pinky - 5/29/00
---------------------------------------------------------------
AIM - Norman Inc
Orion - 
---------------------------------------------------------------

Tuning : E A D G B E 	Time Signature: 4/4

 |       |       |       |        |       |       |       |        
|----------------------------6---|----6---6---6---6-----1-----3---|
|--------------------------------|--------------------------------|
|--------------------------------|--------------------------------|
|--------------------------------|--------------------------------|
|--------------------------------|--------------------------------|
|--------------------------------|--------------------------------|

 |       |       |       |        |       |       |       |        
|----6---6---6---6-----1---------|6---5---3---5---6-----5-----3---|
|--------------------------------|--------------------------------|
|--------------------------------|--------------------------------|
|--------------------------------|--------------------------------|
|--------------------------------|--------------------------------|
|--------------------------------|--------------------------------|

 |       |       |       |        |       |       |       |        
|--5-6-5-6-6---5-6-5-6-6---------|----6---6---6---6-----1-----3---|
|--------------------------------|--------------------------------|
|--------------------------------|--------------------------------|
|--------------------------------|--------------------------------|
|--------------------------------|--------------------------------|
|--------------------------------|--------------------------------|

 |       |       |       |        |       |       |       |        
|----6---6---6---6-----1---------|10--8---6---8---10----8-----6---|
|--------------------------------|--------------------------------|
|--------------------------------|--------------------------------|
|--------------------------------|--------------------------------|
|--------------------------------|--------------------------------|
|--------------------------------|--------------------------------|

 |       |       |       |        |       |       |       |        
|------------3-------------------|--------------------------------|
|--------------------------------|--------------------------------|
|--------------------------------|--------------------------------|
|--------------------------------|--------------------------------|
|--------------------------------|--------------------------------|
|--------------------------------|--------------------------------|

VGJam Tabs Bust a Groove - "Pinky"
Tabs database last modified Tuesday, 01-Nov-2016 19:14:53 UTC.
Copyright © 1999 - 2016 VideoGameJam.com. All rights reserved.