VGJam Tabs Bust a Groove
Bust a Groove
"Shorty" - Guitar tab
Platform(s):PlayStation
Tabbed by:Orion
Last modified:2000-05-29
Print it:Original file (.TXT)
Bust a Groove - Capoera - 5/29/00
---------------------------------------------------------------
AIM - Norman Inc
Orion - 
---------------------------------------------------------------

Tuning : E A D G B E 	Time Signature: 4/4

 |       |       |       |        |       |       |       |        
|1---0-------0-------------------|--------------------------------|
|--------3-----------3-----------|----3---3---0---3---3---3-------|
|--------------------------------|--------------------------------|
|--------------------------------|--------------------------------|
|--------------------------------|--------------------------------|
|--------------------------------|--------------------------------|

 |       |       |       |        |       |       |       |        
|1---0---------------1---0-------|0-------------------------------|
|--------3---3---------------3---|--------0---3-------------------|
|--------------------------------|--------------------------------|
|--------------------------------|--------------------------------|
|--------------------------------|--------------------------------|
|--------------------------------|--------------------------------|

 |       |       |       |        |       |       |       |        
|1---0-------0-------------------|------------------------0-------|
|--------3-----------3-----------|----3---3---0---3---3-----------|
|--------------------------------|--------------------------------|
|--------------------------------|--------------------------------|
|--------------------------------|--------------------------------|
|--------------------------------|--------------------------------|

 |       |       |       |        |       |       |       |        
|5---2---0-------------------7---|--------3---5---1-------0-------|
|------------3-------------------|--------------------------------|
|--------------------------------|--------------------------------|
|--------------------------------|--------------------------------|
|--------------------------------|--------------------------------|
|--------------------------------|--------------------------------|

 |       |       |       |        |       |       |       |        
|--------------------------------|--------------------------------|
|3-------------------------------|--------------------------------|
|--------------------------------|--------------------------------|
|--------------------------------|--------------------------------|
|--------------------------------|--------------------------------|
|--------------------------------|--------------------------------|

VGJam Tabs Bust a Groove - "Shorty"
Tabs database last modified Tuesday, 01-Nov-2016 19:14:53 UTC.
Copyright © 1999 - 2016 VideoGameJam.com. All rights reserved.