VGJam Tabs Brave Fencer Musashi
Brave Fencer Musashi
"Village theme" - Guitar tab
Platform(s):PlayStation
Tabbed by:Jonathan Bouldin
Last modified:2001-08-23
Print it:Original file (.TXT)
#-----------------------------------------------------------------------------#
#-- File created with Instab - http://www.pconline.com/~smcarey/instab.html --#
#-----------------------------------------------------------------------------#

Title: Main Village Theme
Album: Brave Fencer Musashiden OSV
Transcribed by: Jonathan Bouldin
Email: lunchboxs@hotmail.com

A fun little ditty (hee hee... I said 'ditty').

-----0----1-3-0--------|------------------------------------------------------
-1-3----3---------1---1|------------------------------------------------------
----------------0---0--|------------------------------------------------------
-----------------------|------------------------------------------------------
-----------------------|------------------------------------------------------
-----------------------|------------------------------------------------------
 verse

-3-3-5-3----------5-5-7-5----------0-0-----0h1p0--------|---------------------
---------6---6------------8---8----1---1---------1---1--|---------------------
-----------5---5------------7---7--0-----0---------0---0|---------------------
--------------------------------------------------------|---------------------
--------------------------------------------------------|---------------------
--------------------------------------------------------|---------------------
 chorus

-1----------8|----------------------------------------------------------------
-1------6-8--|----------------------------------------------------------------
-2----5------|----------------------------------------------------------------
----5--------|----------------------------------------------------------------
-------------|----------------------------------------------------------------
-------------|----------------------------------------------------------------
 chorus end    repeat from start

VGJam Tabs Brave Fencer Musashi - "Village theme"
Tabs database last modified Tuesday, 01-Nov-2016 19:14:53 UTC.
Copyright © 1999 - 2016 VideoGameJam.com. All rights reserved.