VGJam Tabs Breath of Fire III
Breath of Fire III
"Crowing in the Night" - Bass tab
Platform(s):PlayStation
Composed by:Akari Kaida, Yoshino Aoki
Tabbed by:BassD
Last modified:2002-02-02
Print it:Original file (.TXT)
Playstation
Breath Of Fire 3
Crowing In The Night (Bassline)
Composed by:Akari Kaida, Yoshino Aoki
Tabbed by:BassD

  Ah Yeah! A cool fast but easy bass riff. You can hear this
   in the fairy village, the musical fairy plays that song.

Intro/Main riff x16 (Play as fast as hell)
G|--------------------|
D|-------9-------7----|
A|-7--77---7-5-5---5--|
E|--------------------|

other riff x7
G|(x6)---------|(x1)-----------------------|
D|---------4---|--------4------------------|
A|-2-2--22-----|-2-2------5(back to main)--|
E|-------------|---------------------------|

VGJam Tabs Breath of Fire III - "Crowing in the Night"
Tabs database last modified Tuesday, 01-Nov-2016 19:14:53 UTC.
Copyright © 1999 - 2016 VideoGameJam.com. All rights reserved.