VGJam Tabs Breath of Fire III
Breath of Fire III
"Dauna Mine theme" - Bass tab
Platform(s):PlayStation
Composed by:Akari Kaida, Yoshino Aoki
Tabbed by:BassD
Last modified:2002-02-02
Print it:Original file (.TXT)
Playstation
Breath Of Fire 3
Dauna Mine Theme (Bassline)
Composed by:Akari Kaida, Yoshino Aoki
Tabbed by:BassD

  This bassline rules! You can also hear that song in the
   Maekyss Gorge, except it's slapped and popped.

                        *=a pause(rest)
			h=hammer on
Intro/Main riff
G|(x2)---------------------------------------------------------|
D|-------------------------------------------------------------|
A|----7-5--4-5-7-----7-5--4--------7-5--4-5-7----7-------------|
E|-0--------------0---------7-4--0-------------0--0-4--5-7-5-4-|

G|(x1)------------------------------------------------------------|
D|----------------------------------------------------------------|
A|---7-5--4-5-7----7-5--4---------7-5--4-5-7----7-----------------|
E|-0-------------0--------7-4---0-------------0--0-4--5-7-5-4-0*--|

G|--------------------------------------------|
D|--------------------------------------------|
A|--------------5h7--------5h7(Back to main)--|
E|----------7h9-------------------------------|

Cool song to jam with!
You can also hear this song in the place called "The Tower"(where
you get Momo)
for info, corrections...
rancid_ska@hotmail.com

VGJam Tabs Breath of Fire III - "Dauna Mine theme"
Tabs database last modified Tuesday, 01-Nov-2016 19:14:53 UTC.
Copyright © 1999 - 2016 VideoGameJam.com. All rights reserved.