VGJam Tabs Breath of Fire III
Breath of Fire III
"Forest" - Bass tab
Platform(s):PlayStation
Composed by:Akari Kaida, Yoshino Aoki
Tabbed by:BassD
Last modified:2002-02-02
Print it:Original file (.TXT)
Hear it:MIDI file
Playstation
Breath Of Fire 3
Forest Theme (Bass line)
Composed by:Akari Kaida, Yoshino Aoki
Tabbed by: BassD

Hi,
there are several places where you can hear this bass line:
In Cedar woods, in the forest where you find Meryleep the
master fairy and in the Coffee shop.

                      ring=let the note sound
                      /=slide down

Intro/main part
G|(x3)---------------------------6ring------|
D|-6ring-----------6-4ring---3/4---------4--|
A|------------------------------------------|
E|---------4ring----------------------------|

Chorus
G|-----------------------1-3-----------------------1-3-|
D|-3--3---3---1-3--3---3-----3--3---3---1-3--3---3-----|
A|----------3-------------------------3----------------|
E|-----------------------------------------------------|

G|-----------------------6--------------------------------------------|
D|----------------------------------------4--4---4--------------------|
A|-4--4---4-6-6-4--4---4---4-3--3---3---4----------(Back to main part)|
E|------------------------------------6-------------------------------|

(Repeat an Infinitum)


That's all!
for info or else
rancid_ska@hotmail.com

VGJam Tabs Breath of Fire III - "Forest"
Tabs database last modified Tuesday, 01-Nov-2016 19:14:53 UTC.
Copyright © 1999 - 2016 VideoGameJam.com. All rights reserved.