VGJam Tabs Breath of Fire III
Breath of Fire III
"In the Morning" - Bass tab
Platform(s):PlayStation
Composed by:Akari Kaida, Yoshino Aoki
Tabbed by:BassD
Last modified:2002-02-02
Print it:Original file (.TXT)
Playstation
Breath Of Fire 3
In The Morning (BassLine)
Composed by:Akari Kaida, Yoshino Aoki
Tabbed by:BassD

   You can ear this song in the fairy village,
    the musical fairy plays that song. It's a bit
     ska, that's why I love that song.

                h=hammer on   p=pull off

Intro/main riff x6
G|----------------------------------|
D|-----------------------1-1-3------|
A|---------1----2--2-4-4-------4----|
E|-2-2-4-4---2----------------------|

Other riff/or chorus
G|-----------------------------------------------------------------|
D|---------3----1--1-3-3-4-4-3-4-----------1---------1-1-3-1-3-3---|
A|-1-1-4-4---1-------------------------2-2---2--4--4---------------|
E|---------------------------------4-4-----------------------------|

G|-----------------------------------------------------------------------------|
D|---------3----1--1-3-3-4-4-3-4-----------1-----------------------------------|
A|-1-1-4-4---1-------------------------2-2---2--4---4h6p4----------------------|
E|---------------------------------4-4--------------------7-6-4-(back to main)-|

Cool little song on bass to jam with.

For info or else
rancid_ska@hotmail.com

VGJam Tabs Breath of Fire III - "In the Morning"
Tabs database last modified Tuesday, 01-Nov-2016 19:14:53 UTC.
Copyright © 1999 - 2016 VideoGameJam.com. All rights reserved.