VGJam Tabs Castlevania: Symphony of the Night
Castlevania: Symphony of the Night
"Castle Entrance" - Guitar tab
Platform(s):PlayStation
Tabbed by:Ryan C. Reynolds
Last modified:2000-05-18
Print it:Original file (.TXT)
#----------------------------------PLEASE NOTE--------------------------------#
#This file is the author's own work and represents their interpretation of the#
#song. You may only use this file for private study, scholarship, or research.#
#-----------------------------------------------------------------------------#
#-- File created with Instab - http://www.pconline.com/~smcarey/instab.html --#
#-----------------------------------------------------------------------------#

Title: Castle Entrance
Album: Castlevania: SOTN
Transcribed by: Ryan C. Reynolds
Email: Morbol@aol.com

This is the lead that atarts shortly after the opening chords.
Play this first motive twice.

--------------------|--------------------|---------------|--------------------
--------------------|------------10------|-------7-------|--------------------
-9----11-12-8-------|-9----11-12----12-11|9-7------9-7-9-|--------------------
--------------------|--------------------|----10---------|--------------------
--------------------|--------------------|---------------|--------------------
--------------------|--------------------|---------------|--------------------
 Then play the next parts through only once.

---------------------|------------------|----------------|--------------------
---------------------|------------------|--------7-------|--------------------
-9----11-12-9--------|------9-11-12-10--|-9-7------9-7---|--------------------
----------------12-10|-12---------------|-----10-------9-|--------------------
---------------------|------------------|----------------|--------------------
---------------------|------------------|----------------|--------------------


-----------------|---------------|-----------------|---------------|----------
-----------------|---------------|-----------------|---------------|----------
-------9----9-11-|-12-11-9-------|-9-11-12-9----12-|-9----------8-6|-8--------
-10-12---12------|---------------|-----------11----|---------------|----------
-----------------|---------------|-----------------|---------------|----------
-----------------|---------------|-----------------|---------------|----------
 Play this next part twice, the second time omitting the last 3 notes.

------------------------------------------------------------------------------
-12---------12-------------15----13-12-13-------12-13---12----12--------------
------12-14----14-12-14----------------------14------------14------11-12-14---
------------------------12----------------------------------------------------
------------------------------------------------------------------------------
------------------------------------------------------------------------------
 Play this part only once:

-------12----------------12-14-15-14-------12-----15-17-18-17-13--------------
-13-15----15----15-12----------------15-12-----------------------15-----------
-------------14---------------------------------------------------------------
------------------------------------------------------------------------------
------------------------------------------------------------------------------
------------------------------------------------------------------------------


-15-17-18-22-20-17-18---15-17-18----20---17-18-20---20b-----------------------
------------------------------------------------------------------------------
------------------------------------------------------------------------------
------------------------------------------------------------------------------
------------------------------------------------------------------------------
------------------------------------------------------------------------------
 This is the cleaner(bells?) sounding part that comes next:

-------------------|---------3---1---3-|-------------------|--------3---2-----
---1-3-----1-3---3-|---1-3-------------|---1-3-----1-3---3-|--1-3----------4--
-0-----0-0-----0---|-0-----0---0---0---|-0-----0-0-----0---|0-----0---0---0---
-------------------|-------------------|-------------------|------------------
-------------------|-------------------|-------------------|------------------
-------------------|-------------------|-------------------|------------------

VGJam Tabs Castlevania: Symphony of the Night - "Castle Entrance"
Tabs database last modified Tuesday, 01-Nov-2016 19:14:53 UTC.
Copyright © 1999 - 2016 VideoGameJam.com. All rights reserved.