VGJam Tabs Castlevania: Symphony of the Night
Castlevania: Symphony of the Night
"Clock tower ("The Tragic Prince")" - Guitar tab
Platform(s):PlayStation
Tabbed by:IssacV
Last modified:1999-12-17
Print it:Original file (.TXT)
Hear it:MIDI file
Castlevania(clocktower)


This took quite some time to figure out so I hope you enjoy, oh and
best of luck this includes some VERY complicated runs arranged for two 
guitars. Once again good luck!!
By:Issac Villarreal



E--------------------------------------------]------------------------
B----------------------------------13----14--]------------------------
G-12-14--11----------------12-13-------------]------------------------
D--------------------------------------------]------------------------
A--------------------------------------------]------------------------
E--------------------------------------------]------------------------


E------------------------------------]--------------------------------
B------------------------------------]--------------------------------
G------------------------------------]--------------------------------
D-------5-3---------2---------5\3-5--]--------------------------------
A-------5-3---------2---------5\3-5--]--------------------------------
E-3-3-3-------3-3-3-----3-3-3--------]--------------------------------


E---------------------------------------------------------------------
B---------------------------------------------------------------------
G-------------7-6---8b--8--5-7-8-5------------------------------------
D--8-7------------7----------------6---5------------------------------
A--------5---------------------------8--------------------------------
E---------------------------------------------------------------------


E----------------------------------------------------------]----------
B-------------------10-----10-11-13-11h13-13b-13-11--------]----------
G-------------7-6/9---------------------------------10-12--]----------
D--8-7-----------------------------------------------------]---------
A--------5-------------------------------------------------]----------
E----------------------------------------------------------]----------


E---------------------------------------------------------------------
B-15--13-16-15-13----15--13-16-15-13---13-11-15-13-11--15-18-16-15-16-
G---------------------------------------------------------------------
D---------------------------------------------------------------------
A-6------------------8-------------10--5------------------8--------6--
E-4------------------6-------------8---3------------------------------
  *two guitars,two guitars mind you!


E-------------------]-------------------------------------------------
B--18-20--19-17-19--]-------------------------------------------------
G-------------------]-------------------------------------------------
D-------------------]-------------------------------------------------
A--8--10--9--7--9---]-------------------------------------------------
E-------------------]-------------------------------------------------


E---------------------------------------------------------------------
B---------------------------------------------------------------------
G-------------7-6---8b--8--5-7-8-5------------------------------------
D--8-7------------7----------------6---5------------------------------
A--------5---------------------------8--------------------------------
E---------------------------------------------------------------------


E-----------------------------------------------------]---------------
B-------------------10-----10-11-13-11h13-15b-16b-15--]---------------
G-------------7-6/9-----------------------------------]--------------
D--8-7------------------------------------------------]--------------
A--------5--------------------------------------------]---------------
E-----------------------------------------------------]---------------


E---------------------------------------------------------------------
B---------------------------------------------------------------------
G-----5b-5--------------------5b-5------------------------------------
D---5------8--7-8-7---5-----5------8--7-8-7---------------------------
A-8-----------------8-----8-----------------8-5-----------------------
E--------------------------------------------------------------------


E---------------------------------------------------------]-----------
B---------------------------------------------------------]-----------
G-----7--7-5------------7b-7------------------5---7b---7--]-----------
D---5--------8--7-8-7-5-------------------7---------------]-----------
A-6---------------------------5---6---8-------------------]-----------
E---------------------------------------------------------]-----------


E---------------------------------------------------------------------
B---------------------------------------------------------------------
G-----5b-5--------------------5b-5------------------------------------
D---5------8--7-8-7---5-----5------8--7-8-7---------------------------
A-8-----------------8-----8-----------------8-5-----------------------
E--------------------------------------------------------------------


E---------------------------------------------------------------------
B---------------------------------------------------------------------
G-----7--7-5------------7b-7----------------------7-5-------7-5-3-----
D---5--------8--7-8-7-5------------------5-8-8-7-5-5-5-8-7-5----------
A-6---------------------------5-6-6-6--6------------------------------
E---------------------------------------------------------------------


E-6-5-3-------------]-------------------------------------------------
B-------4---3-------]-------------------------------------------------
G---------5---5-6---]---more orchestral compositions-----------------
D-------------------]-------------------------------------------------
A-------------------]-------------------------------------------------
E-------------------]-------------------------------------------------


E---------------------------------------------------------------------
B---------------------------------------------------------------------
G-----5b-5--------------------5b-5------------------------------------
D---5------8--7-8-7---5-----5------8--7-8-7---------------------------
A-8-----------------8-----8-----------------8-5-----------------------
E---------------------------------------------------------------------


E---------------------------------------------------------------------
B---------------------------------------------------------------------
G-----7--7-5------------7b-7------------------------------------------
D---5--------8--7-8-7-5------------------5-8-8-7-------------5-8-8-7--
A-6---------------------------5-6-6-6--6----------5-6-6-6--6----------
E---------------------------------------------------------------------


E----------------------------]----------------------------------------
B----------------------------]----------------------------------------
G-5------------------7--5-7--]----------------------------------------
D------8-------5h7h8---------]---------------------------------------
A----------------------------]----------------------------------------
E----------------------------]----------------------------------------




This solo is one of the best solo's ever heard on a video game.
I strongly suggest at least knowing the notes to improve your style.
Good luck! Be patient!Every note is picked. It sounds like there is two 
guitars switching off but I have arranged it for 1 guitar.


Solo
E------8-------------------------------------------------------5---10-
B-10-8---11-10-8--------------------8-10-------------------6-----6----
G----------------7-5------------5-7------7-------------7-----7--------
D---------------------8-7-5-7-8------------------5-7-8---5------------
A------------------------------------------5-6-8----------------------
E---------------------------------------------------------------------


E------8---------------------------------------------8/12-8-----------
B-10-8---11-10-8-----------------------------------8--------8---------
G----------------7-5------------5-7-9---9------5-9--------------------
D---------------------8-7-5-7-8-------7------5------------------------
A---------------------------------------------------------------------
E---------------------------------------------------------------------


E---------------------------------------------------------------------
B---11p10p8-13b-11------11p10p8-13b-11----11-8----------------8-11----
G----------------------------------------------9-6---------6-9--------
D--10---------------------------------------------8-5---5-8-----------
A----------------------------------------------------7-8--------------
E---------------------------------------------------------------------


E-------------------------------]-------------------------------------
B--8-9--8/10--10-11-13-15b-15---]-------------------------------------
G-------------------------------]-------------------------------------
D--5-6--5/7---------------------]-------------------------------------
A-------------------------------]-------------------------------------
E-------------------------------]-------------------------------------


That is all I could figure out, the rest is orchestral and it is really hard 
to figure out, I have figured out some of it.
This took quite some time to type, oh boy, Im dead!!

VGJam Tabs Castlevania: Symphony of the Night - "Clock tower ("The Tragic Prince")"
Tabs database last modified Tuesday, 01-Nov-2016 19:14:53 UTC.
Copyright © 1999 - 2016 VideoGameJam.com. All rights reserved.