VGJam Tabs Castlevania: Symphony of the Night
Castlevania: Symphony of the Night
"Lost Painting" - Guitar tab
Platform(s):PlayStation
Tabbed by:Seshiru
Last modified:2001-11-15
Print it:Original file (.TXT)
#----------------------------------PLEASE NOTE--------------------------------#
#This file is the author's own work and represents their interpretation of the#
#song. You may only use this file for private study, scholarship, or research.#
#-----------------------------------------------------------------------------#
#-- File created with Instab - http://www.pconline.com/~smcarey/instab.html --#
#-----------------------------------------------------------------------------#

Title: The Lost Paintings
Game: Castlevania: Symphony of the Night
Transcribed by: Seshiru
Email: seshiru@shinra.org



-|-2--0--2----|-----------------|----------------------|----------------------
-|----------2-|--0----0---------|---------2---0---2----|----------------------
-|------------|-----2----1------|--------------------2-|--1------1--2--1------
-|------------|-------------2--4|-----4----------------|------4---------------
-|------------|-----------------|----------------------|----------------------
-|------------|-----------------|----------------------|----------------------



--------|--------------------|--------------------------|---------------------
--------|-------2---0---2----|--------------------------|--2--0--2------0--2--
--------|------------------2-|--1------1--2--1----------|------------2--------
-2---4--|----4---------------|------4-------------2---4-|---------------------
--------|--------------------|--------------------------|---------------------
--------|--------------------|--------------------------|---------------------



----|----------------0--------2|--4--5--4--0--0------2--|--4-5---9--4--4-|----
----|-2--0-----0--2-----3--2---|------------------2-----|----------------|----
----|-------2------------------|------------------------|----------------|----
----|--------------------------|------------------------|----------------|----
--3-|--------------------------|------------------------|----------------|----
----|--------------------------|------------------------|----------------|----



-----9--7--9--5----7--4--|-5--7--5-4--|-----------------|---------------------
--2----------------------|------------|------2--0--2----|---------------------
-------------------------|------------|---------------2-|-1------1--2---1-----
-------------------------|------------|--4--------------|-----4---------------
-------------------------|------------|-----------------|---------------------
-------------------------|------------|-----------------|---------------------



-------|---------------------0------|--------------|---------0---------0--2-|-
-------|----------2--0----2-----4---|----0--------2|---0--2--------4--------|-
-------|----------------------------|--------------|------------------------|-
-2--4--|----------------------------|---------4----|------------------------|-
-------|----------------------------|--------------|------------------------|-
-------|----------------------------|--------------|------------------------|-



-2---4-5--4-5--0-----2-|--0--2--0------------------|--------------------|-----
------------------2----|------------2-----0-----0--|--------0---2--0--2-|--2--
-----------------------|---------------2-----2-----|--1--2--------------|-----
-----------------------|---------------------------|--------------------|-----
-----------------------|---------------------------|--------------------|-----
-----------------------|---------------------------|--------------------|-----



-------0----|--------------------0--------0--2-|--2--4-5--4-5---7---4--0--2-|-
-0--2-----4-|-0-------2---0--2--------4--------|----------------------------|-
------------|----------------------------------|----------------------------|-
------------|-----4----------------------------|----------------------------|-
------------|----------------------------------|----------------------------|-
------------|----------------------------------|----------------------------|-



-4--5--4--0------------------------------------|------------------------------
--------------0--------------------------------|------------------------------
-----------------2---1--------1----------------|------------------------------
-------------------------4--------2---------4--|------------------------------
----------------------------------------4------|------------------------------
-----------------------------------------------|------------------------------

VGJam Tabs Castlevania: Symphony of the Night - "Lost Painting"
Tabs database last modified Tuesday, 01-Nov-2016 19:14:53 UTC.
Copyright © 1999 - 2016 VideoGameJam.com. All rights reserved.