VGJam Tabs Castlevania: Symphony of the Night
Castlevania: Symphony of the Night
"Marble Gallery" - Guitar tab
Platform(s):PlayStation
Tabbed by:Chen Liang
Last modified:1999-06-14
Print it:Original file (.TXT)
----------------------------------------------------------------------
Guitar tablature of:
Castlevania: Symphony of the Night - "Marble Gallery"
Original Composition and Arrangement by ??? (Konami music team)
Unofficial Tablature done on June 14th, 1999 by
	Chen Liang (cliang78@yahoo.com | http://cliang.cjb.net)

----------------------------------------------------------------------
TAB NOTATION used in this piece:
~ = vibrato
pm= palm mute
h = hammer on
p = pull off

----------------------------------------------------------------------
Playing Suggestions
*  There is no correct way to set your guitar, acoustic or electric,
	since the original piece isn't really for guitars.  So just
	listen to the piece and use your own choice.  You can probably
	make it sound nice with some weird flanger stuff in some spots.
	It's supposed to be kind of a creepy tune anyway.
*  The different guitar parts are lined up accordingly.
*  Suggestions listed later as needed.

----------------------------------------------------------------------

INTRO - Guitar III (Rhythm/Harmony, Organ?)
D|------------0--6--9--------------0--6--9-|
A|-2-----2----0--4--7--2-----2-----0--4--7-|
E|-0--0--0--0----------0--0--0--0----------|
              pm----|              pm----|
THEME I
	Guitar I (Harpsichord)
e|-7---------------------------------------------------------|
B|---8---7----5----------------7--6-------5------------------|
G|-----8----------------------------5------------------------|
D|--------------5-7-8~~~-5-7-8--------7-5--------------------|
	
	Guitar III
D|---------------------------------------------------0--6--9-|
A|----------------------------------------2-----2----0--4--7-|
E|----------------------------------------0--0--0--0---------|

	Guitar I
e|-7---------------------------------------------------------------------------|
B|---8---7----5----------7----7---6-------5------------------------------------|
G|-----8--------------------6-------5------------------------------------------|
D|--------------5-7-8~~~--------------7-5--------------------------------------|
	Guitar III
D|---------------------------------------------------0--6--9--------------0--6-|
A|----------------------------------------2-----2----0--4--7--2-----2-----0--4-|
E|----------------------------------------0--0--0--0----------0--0--0--0-------|

	Guitar I
e|-8p7-10-8------------------8p7-10-8------------------7----------6---5-|
B|--------------------------------------------------------8-------------|
G|-----------------------------------------------------------9----------|
	Guitar III
D|-2---2--2--2---3---3---3---4---4--4--4---3---3---3---2---2-2--2-2-----|
A|-2---2--2--2---3---3---3---4---4--4--4---3---3---3---2---2-2--2-2-----|
E|----------------------------------------------------------------------|

	Guitar III
D|------------0--6--9--------------0--6--9-|
A|-2-----2----0--4--7--2-----2-----0--4--7-|
E|-0--0--0--0----------0--0--0--0----------|
              pm----|              pm----|

	Guitar II (Synthesizer)
e|-7---------------------------------------------------------|
B|---8---7----5----------7----7---6-------5------------------|
G|-----8--------------------6-------5------------------------|
D|--------------5-7-8~~~--------------7-5--------------------|

	Guitar III
D|---------------------------------------------------0--6--9-|
A|----------------------------------------2-----2----0--4--7-|
E|----------------------------------------0--0--0--0---------|

	Guitar II
e|-7---------------------------------------------------------------------------|
B|---8---7----5----------7----7---6-------5------------------------------------|
G|-----8--------------------6-------5------------------------------------------|
D|--------------5-7-8~~~--------------7-5--------------------------------------|
	Guitar III
D|----------------------------------------2--2-2--2-3--3--3--4--4-4--4-5--5--5-|
A|----------------------------------------2--2-2--2-3--3--3--4--4-4--4-5--5--5-|
E|-----------------------------------------------------------------------------|

	Guitar II
e|-8p7-10-8------------------8p7-10-8------------------7----------6---5-|
B|--------------------------------------------------------8-------------|
G|-----------------------------------------------------------9----------|
	Guitar III
D|-2---2--2--2---3---3---3---4---4--4--4---3---3---3---2---2-2--2-2-----|
A|-2---2--2--2---3---3---3---4---4--4--4---3---3---3---2---2-2--2-2-----|
E|----------------------------------------------------------------------|

	Guitar III
D|------------0--6--9--------------0--6--9-|
A|-2-----2----0--4--7--2-----2-----0--4--7-|
E|-0--0--0--0----------0--0--0--0----------|
              pm----|              pm----|

THEME II
	Guitar I (altered sound)
e|-----0-5-7-8---------5-7-8-5-----------5-7-8------------12-15-13-|
B|-------------------6-----------------6---------------15----------|
	Guitar II
e|-7h8-----------7h8-10----------12h13-----------12h13-15----------|
B|-----5-------------------------------10--------------------------|
	
	Guitar I
e|----------15-17-18------------15-17-18-------|
B|-------15-----------------15-----------------|
	Guitar II
e|-17h18--------------17h18-20--------18h20-17-|
B|-------15------------------------------------|

	Guitar I (back to Harpsichord sound)
e|-----0-5-4-0-3---2---1-------0-5-4-0-3---2---1---------|
B|---2-----------4---3---2---2-----------4---3---2-------|
G|-2-----------------------2-----------------------------|
D|-------------------------------------------------------|
A|-------------------------------------------------------|
E|-------------------------------------------------------|

e|--------12-11----10----9----8--------------------------|
B|---9-12-------12----11---10---9----------10--10-10--10-|
G|-9-----------------------------------------------------|
D|--------------------------------7--7--7--(7--7--7---7)-|
A|-------------------------------------------optional----|
E|-------------------------------------------------------|

REPEAT FROM THEME I

END

----------------------------------------------------------------------
NOTES
*  This tablature was made by a beginner guitarist (me), so
	don't expect too much out of it.
*  Feedback is highly appreciated.  If you think a particular
	passage could be tabbed better or maybe I have a wrong note, or
	you have interesting amp settings or anything else, then let me
	know.  (Amp settings especially, since my amp sucks and I don't
	have any pedals and stuff)
*  As with all tablature, view this with a FIXED-WIDTH font.
*  This piece is actually for organ, harpsichord, and
	synthesizer.  Or probably just synthesizers, but it
	sounds nice with guitars, which is why I did it.
*  I interpreted this tab from audio data taken directly
	off of the Castlevania: Symphony of the Night
	Playstation game CD and converted into WAV form.
*  If you've played Castlevania: Symphony of the Night, then
	you'll recognize this piece from the Marble Gallery as
	the title suggests.
*  I'm curious about the name of the author of this piece and
	the other Castlevania SOTN music as well.  E-mail me if
	you know.

----------------------------------------------------------------------
REVISIONS
----------------------------------------------------------------------
June 14th, 1999 	- wrote tab
Sep. 8th, 1999		- major editing (too many words)
Dec. 11th, 1999		- minor editing
======================================================================
LEGAL STUFF
1)  This tablature is only my interpretation and may or may not be an
	accurate translation of the original, as is the case with most
	tabs on the Internet and elsewhere.
2)  This document is to be used for academic/scholarly purposes only
	and may be freely distributed.
3)  Feel free to edit or add to this tab, just make sure you indicate
	any edits or adds.
VGJam Tabs Castlevania: Symphony of the Night - "Marble Gallery"
Tabs database last modified Tuesday, 01-Nov-2016 19:14:53 UTC.
Copyright © 1999 - 2016 VideoGameJam.com. All rights reserved.