VGJam Tabs Castlevania: Symphony of the Night
Castlevania: Symphony of the Night
"Wandering Ghosts" - Guitar tab
Platform(s):PlayStation
Tabbed by:IssacV
Last modified:2001-12-30
Print it:Original file (.TXT)
Wandering ghost
From Castlevania Symphony of the Night, playstation.
Composer: Michiru Yamane
Tabbed by IssacV (Issac77995@yahoo.com ) 

I have some audio files up on the site above for 
this one and some others.
Intro...if you have an octave effect pedal you may want to use it.

------------------------------------------------------------------------------
------------------------------------------------------------------------------
------------------------------------------------------------------------------
----------------------------------6-8-6---------------------------------------
--8----10-8-6-8----6---8---6-8-10-------10--8----10-8-6-8----6---8---6-8-6----
---------------------------------------------------------------------------9--

------------------------------------------------------------------------------------------
------------------------------------------------------------------------------------------
-------------------------------------------------------------------------------8-10-8-----
----------------------------------6-8-6-8-10----11-10-8-10----8---10---8-10-11--------11--
--8----10-8-6-8----6---8---6-8-10---------------------------------------------------------
------------------------------------------------------------------------------------------

------------------------------------------------------------------------------------------
------------------------------------------------------------------------------------------
-------------------------------------------------------------------------------8-10-8-----
--10----11-10-8-10----8---10---8-10-8-----10----11-10-8-10----8---10---8-10-11--------11--
--------------------------------------9---------------------------------------------------
------------------------------------------------------------------------------------------

------------------------------------------
------------------------------------------
------------------------------------------
------------------------------------------
--10----11-10-8-10----8---10---11-10-8----
---------------------------------------9--
(bass enters)

-----------------------------------------------------
-----------------------------------------------------
-----------------------------------------------------
-------5--6----5--6-----------------8-6-5---6--5--6--
--8---------------------------8--8-------------------
----------------------------------------------------- Repeat twice 

-----------------------------------------------------------
-----------------------------------------------------------
-----------------------------------------------------------
-----------------------------------------------------------
--8----8--------8--8--8--------------8----8-------8--8--8--
-----------------------------------------------------------

--1------------------------------------------------------------------
--1-------------------------------4----4-4---/8---\6-----------------
--1-------------------------3-5-6----------------------8p5-----------
----------------------3-5-6----------------------------------8--6-4--
--4---------4-6-3-4-6------------------------------------------------
---------------------------------------------------------------------

------------------------------11-8--11--13\--
--------------------------------------------- 
-------------------------------8-5---8--10\--
--3--/-10---------------10-------------------
-------------8p6h8p6-------------------------
---------------------------------------------

(Section 1 & 2 repeat, then this weird thing...)

-----------------------------------------------------------
--------------------2---2----------4-4-4-4---2---2---6--6--
--5-5-5-5---3---3---3---3---5------5-5-5-5---3---3---6--6--
--6-6-6-6---5---5-----------6------------------------------
-----------------------------------------------------------
-----------------------------------------------------------

---------------------------------------------------------------
--------------------2---2----------6-8-9---8-11-9-8------------
--5-5-5-5---3---3---3---3---5-----------------------9p7h9-6-5--
--6-6-6-6---5---5-----------6----------------------------------
---------------------------------------------------------------
---------------------------------------------------------------

------------------------------------------------------------------------------------
--9-9-9---8-9-11-9-8----8h9p8----8----8-9-8-6---6h8p6---6----5-6-8-6-5---5h6p5------
---------------------10-------10--------------8-------8----------------7-------6-5--
------------------------------------------------------------------------------------
------------------------------------------------------------------------------------
------------------------------------------------------------------------------------

sweep
---------------------------9---9-----------------------------------8--8--
--13--13--13----11--11----11--11-----------11--11--11----9----9----9--9--
--13--13--13----12--12---------------------12--12--12----10--10----------
--13---------------------------------------------------------------------
--11---------------------------------------------------------------------
-------------------------------------------------------------------------

----------------------------------------------------------13-13--12-\--
--9-9-9---8-9-11-9-8----8-\-----------------------13-13----------------
---------------------10-------------------12-12------------------------
--------------------------------10-10----------------------------------
-----------------------------------------------------------------------
-----------------------------------------------------------------------

VGJam Tabs Castlevania: Symphony of the Night - "Wandering Ghosts"
Tabs database last modified Tuesday, 01-Nov-2016 19:14:53 UTC.
Copyright © 1999 - 2016 VideoGameJam.com. All rights reserved.