VGJam Tabs Chrono Cross
Chrono Cross
"Chrono Cross ~Time's Scar~" - Guitar tab
Platform(s):PlayStation
Composed by:Yasunori Mitsuda
Soundtrack:Chrono Cross Original Soundtrack (track D1-01)
Tabbed by:Paul Hasas
Last modified:2000-11-15
Print it:Original file (.TXT)
Hear it:MIDI file
Enjoy...although you've probably already received a thousand tabs of this 
song...oh well.

Title: Chrono Cross: Scars of Time
Game: Chrono Cross
Composer: Yasunori Mitsuda

TAB by W4lf (BigBadW4lf@netzero.net)


Standard Tuning...let ring throughout.


E|--------------------------|
B|--------------3--------3--|
G|-----------0--------0-----|
D|--------4--------4--------|
A|-----2--------------------|
E|--0-----------------------| ...play 3 times

E|--------------0~~---------|
B|--------------------------|
G|-----------0--------------|
D|--------4-----------------|
A|-----2--------------------|
E|--0-----------------------|

E|--------------------------|
B|--------------3--------3--|
G|-----------0--------0-----|
D|--------4--------4--------|
A|-----2--------------------|
E|--0-----------------------| ...play 2 times

E|--------------0-----------|--------------0-----------|
B|-----------3-----------3--|-----------3--------------|
G|--------0-----------0-----|--------0-----------0-----|
D|-----4-----------4--------|-----4-----------4-----4--|
A|--3-----------------------|--3-----------------------|
E|--------------------------|--------------------------|

E|--------------------------|--------------2-0----------|
B|--------------3--------3--|------------------3-----3--|
G|-----------0--------0-----|-----------0---------0-----|
D|--------4--------4--------|--------4------------------|
A|-----2--------------------|-----2---------------------|
E|--0-----------------------|--0------------------------|

E|--------------0-----0-----|
B|--------------0-----0-----|
G|-----------2--------------|
D|--------3--------3-----3--|
A|-----3--------------------|
E|--1-----------------------| ...play 2 times

E|--------------------------|--------------2-0----------|
B|--------------3--------3--|------------------3--------|
G|-----------0--------0-----|-----------0---------0-----|
D|--------4--------4--------|--------4---------------0--|
A|-----2--------------------|-----2---------------------|
E|--0-----------------------|--0------------------------|

E|----------------2----------|
B|--------0~~----3-----3-----|
G|--------0~~---2---2-----2--|
D|-----0---------------------|
A|---------------------------|
E|--3------------------------|

E|--0-----------------------|--------------2-----------|
B|-----------0--1-----------|--0--------3--------3-----|
G|--------0-----------0-----|--------0-----2--2-----2--|
D|-----4-----------2-----2--|-----0--------------------|
A|--------------------------|--------------------------|
E|--0-----------------------|--3-----------------------|

E|--0-----0~~---------------|----0~~-------------------|
B|-----3--------------3--0--|---0~~--------------------|
G|--0-----0~~------0--------|--------------------------|
D|-----4----------4---------|--2~~---------------------|
A|--------------------------|--------------------------|
E|--------------------------|--------------------------|



...And the other instruments take over from there. Good luck!

-->BigBadW4lf

Comments, suggestions, corrections, gripes, and continuations are very welcome.

VGJam Tabs Chrono Cross - "Chrono Cross ~Time's Scar~"
Tabs database last modified Tuesday, 01-Nov-2016 19:14:53 UTC.
Copyright © 1999 - 2016 VideoGameJam.com. All rights reserved.