VGJam Tabs Chrono Cross
Chrono Cross
"Chrono Cross ~Time's Scar~" - Guitar tab
Platform(s):PlayStation
Composed by:Yasunori Mitsuda
Soundtrack:Chrono Cross Original Soundtrack (track D1-01)
Tabbed by:Adam Estabrook
Last modified:2000-07-30
Print it:Original file (.TXT)
Hear it:MIDI file
Song Title: Time's Scar
Game: Chrono Cross
Composer: Yasunori Mitsuda

Tabbed By: Adam Estabrook (6/28/00)
email: adam2015@secondimpact.com
Note: Feel free to correct, comment, or critacize my work.

**Listen to song for rhythm**


**intro**
e|------------------------------------------
B|---12-12--10-8--7-8-10----7^8^10--8-7-5---
G|-9----------------------------------------
D|------------------------------------------
A|------------------------------------------
E|------------------------------------------

e|----------------10-12-10-9---------------------------------
B|---12-12--12-14------------12---10-8-10-12-10--10-12-8-7-8-
G|-9---------------------------------------------------------
D|-----------------------------------------------------------
A|-----------------------------------------------------------
E|-----------------------------------------------------------

e|-----------------------------------------------------------
B|-8-10-12--8-10--8--7-5-3----12--12-10-8-7-5--5-3-5---------
G|-----------------------------------------------------------
D|-----------------------------------------------------------
A|-----------------------------------------------------------
E|-----------------------------------------------------------

**Fast Part (play 2x)
e|------------------------------------------
B|---12----10-------------------------------
G|-9-----9------11^12^11----11--------------
D|-----------------------14----12-14--9-----
A|------------------------------------------
E|------------------------------------------

e|--------------------------10--------------
B|---12----10-------------------------------
G|-9-----9------11-12--11-12----------------
D|------------------------------------------
A|------------------------------------------
E|------------------------------------------

**Play until ending**                               *Go to ending 3x through
e|-10-12---10-8-7------------10-7-----12--10-8-7----------------------------
B|----------------10-8--7-8----------------------10-8--10^12^10(*)----------
G|--------------------------------------------------------------11--12-11-9-
D|--------------------------------------------------------------------------
A|--------------------------------------------------------------------------
E|--------------------------------------------------------------------------

**Ending**
e|-10-12-------
B|-------------
G|-------------
D|-------------
A|-------------
E|-------------

VGJam Tabs Chrono Cross - "Chrono Cross ~Time's Scar~"
Tabs database last modified Tuesday, 01-Nov-2016 19:14:53 UTC.
Copyright © 1999 - 2016 VideoGameJam.com. All rights reserved.