VGJam Tabs Chrono Cross
Chrono Cross
"Arni Village ~ Home" - Guitar tab
Platform(s):PlayStation
Composed by:Yasunori Mitsuda
Soundtrack:Chrono Cross Original Soundtrack (track D1-03)
Tabbed by:Matthew Doyle
Last modified:2002-04-01
Print it:Original file (.TXT)
Title: Home~ Arni Village
Album: Chrono Cross OSV
Artist: Yasunori Mitsuda
Transcribed by: Matthew Doyle
Email: PhilLUL@aol.com

This is a work in progress tab on: Home~ Arni village for Chrono Cross Disc 
1 Track 3

I couldnt find a tab for this song anywhere so i decided to start making 
one, 
this is my first ever tab for anything (be gentle!). As you can see 
its only a small fragment of the song, but its better than nothing. Im figuring 
out more bits so ill probably 
update it fairly quickly. Im hoping Any help 
would be greatly appreciated

Ive tried to transcribe it to be actually playable, because its only a synth 
instrument, not a real guitar(s?), so thats why its sounds like its missing 
a bit, you can try playing as it sounds, but youll probably slice your fingers 
off. Try and keep your fingers in the shape of the 'D' chord to make your 
life easier



e|----4--4h5p4-4-0-------4--4h5p4-4-0-----7-5-4--4h5p4-4-0--------------------
B|-----------------7---5--------------7--------------------7---5--7-----------
G|--4----------------4------------------4--------------------4-------4-2-1----
D|----------------------------------------------------------------------------
A|----------------------------------------------------------------------------
E|----------------------------------------------------------------------------
								     -11secs	

i think i probably missed a few of the more bassier 
notes on the above section but its basically correct


e|-4--7--5--3--4--7--5--12-11-12--7--5--4--0--2--4--5--2--0--0--??
B|-5-----5--2--5-----5--12-12-12--7--5--5--3--3--5--5--3--3--5--??
G|-4-----4--3--4-----4------------6--4--4--2--2--4--4--2--2--4--??
D|----------0------------------------------0--0--------0--0-----??
A|--------------------------------------------------------------??
E|--------------------------------------------------------------??
							   -22secs

this is not 100% accurate because ive sorta meshed the strumming and the 
picking together,
but i think youll agree its sounds right. The question marks at the end 
are a few notes after the last strum that i havent figured out yet (any 
takers?)


e|--------0---3p2---0h2		
B|------3---2-----2----		
G|----2---------------- X2
D|--0------------------
A|---------------------
E|---------------------		

Im very unsure about this part, im not even sure 
if im playing the right strings there but ill be surprised 
if its radically 
different

I aint figured out the rest yet, but as i said its a work in progress 
and any help would be appreciated. 
If youve got corrections or additions 
please send 'em to the email address below and ill make sure youre mentioned 
in the tab, Have fun playin!

Matthew Doyle: PhilLUL@aol.com

VGJam Tabs Chrono Cross - "Arni Village ~ Home"
Tabs database last modified Tuesday, 01-Nov-2016 19:14:53 UTC.
Copyright © 1999 - 2016 VideoGameJam.com. All rights reserved.