VGJam Tabs Chrono Cross
Chrono Cross
"Fields of Time ~ Home World" - Guitar tab
Platform(s):PlayStation
Composed by:Yasunori Mitsuda
Soundtrack:Chrono Cross Original Soundtrack (track D1-04)
Tabbed by:Paul Hasas
Last modified:2000-12-17
Print it:Original file (.TXT)
Hear it:MIDI file
Composer: Yasunori Mitsuda
Title: Grasslands of Time
Game: Chrono Cross

Transcribed by: Walf
Email: BigBadW4lf@netzero.net


This song has a picking rhythm that stays fairly constant throughout the whole
thing...


*Guitar 1 -- Acoustic steel-string

e||--------------------------|-------------------------|----------------------4--|
b||------------1-------2--1--|-----------1-------2--1--|-----1--2--4----1--2-----|
G||-*----1--3-------1--------|-----1--3-------1--------|-------------------------|
D||--------------------------|---1----------1----------|---3----------3----------|
A||-*--4----------4----------|-------------------------|-------------------------|
E||--------------------------|-------------------------|-------------------------|


|-------------------------|-------------------------|-------------------------|
|-----1--2--4----1--2--1--|-----------1-------2--1--|--------1----------1-----|
|-------------------------|-----1--3-------1--------|-----1-----3----1-----1--|
|---3----------3----------|-------------------------|-------------------------|
|-------------------------|---4----------4----------|---3----------3----------|
|-------------------------|-------------------------|-------------------------|


|-------------------------|-----------------------4----||
|-----------4----------4--|-3----------3-------4-------||
|-----1--3-------1--3-----|--------------------------*-||
|---3----------3----------|------3--6-----3h6----------||
|-------------------------|----5---------------------*-||
|-------------------------|----------------------------||


|-------------------------|-------------------------|----------------------4--|
|-----------1-------2--1--|-----------1-------2--1--|-----1--2--4----1--2-----|
|-----1--3-------1--------|-----1--3-------1--------|-------------------------|
|-------------------------|---1----------1----------|---3----------3----------|
|---4----------4----------|-------------------------|-------------------------|
|-------------------------|-------------------------|-------------------------|


|-------------------------|-------------------------|-------------------------|
|-----1--2--4----1--2--1--|-----------1-------2--1--|--------1----------1-----|
|-------------------------|-----1--3-------1--------|-----1-----3----1-----1--|
|---3----------3----------|-------------------------|-------------------------|
|-------------------------|---4----------4----------|---3----------3----------|
|-------------------------|-------------------------|-------------------------|


|-------------------------|--------------------------||
|-----------4----------4--|-3----------3-------4--6--||
|-----1--3-------1--3-----|--------------------------||
|---3----------3----------|------3--6-----3h6--------||
|-------------------------|----5---------------------||
|-------------------------|--------------------------||


*Key change*
||--------------2-------------2--|--------------2-------------2--|
||----------0-------------0------|----------0-------------0------|
||-*----3-------------3----------|------3-------------3----------|
||----1-------------1------------|----1-------------1------------|
||-*-----------------------------|-------------------------------|
||-------------------------------|-------------------------------|


|-------------------------------|---------------------------------||
|--------------4-------------4--|--------------4-------------4----||
|------0---1---------0---1------|------0---1---------0---1------*-||
|-------------------------------|---------------------------------||
|----3-------------3------------|----3-------------3------------*-||
|-------------------------------|---------------------------------||


|-------------------------------|-------------------------------|
|----------4-------------4------|----------4-------------4------|
|--------------6-------------6--|--------------6-------------6--|
|------6-------------6----------|------6-------------6----------|
|----7-------------7------------|----7-------------7------------|
|-------------------------------|-------------------------------|


|-------------------------------|--------------------------------|
|-------------------------------|--------------------------------|
|----------6-------------6------|-----------6-------------6------|
|------3-------4-----3-------4--|-------3-------4-----3-------4--|
|----6-------------6------------|-6---6-------------6------------|
|-------------------------------|--------------------------------|


|-------------------------------|-------------------------------|
|----------4-------------4------|----------0-------------2-p-0--|
|------1-------1-----1-------1--|------1-------3-----1----------|
|----4-------------4------------|----2-------------2------------|
|-------------------------------|-------------------------------|
|-------------------------------|-------------------------------|


|-------------------------------|-------------------------------||
|----------4-------------4------|----------4-------------4------||
|------1-------3-----1-------3--|------1-------3-----1-------3--||
|----1-------------1------------|----1-------------1------------||
|-------------------------------|-------------------------------||
|-------------------------------|-------------------------------||

...repeat the whole thing over as many times as you wish...



*Guitar 2 -- (or sitar, or whatever it is)*

* Wait for the other guitar to go through its part once *


e -------------||----6----------------|-------------------|
b ----------6--||---------------9--7--|--6----------------|
G -------8-----||-*-------------------|--------6-----8p6--|
D -6--8--------||---------------------|-------------------|
A -------------||-*-------------------|-------------------|
E -------------||---------------------|-------------------|



|------------4------|-------------4-----|--6-------------6--|
|-------------------|-------------------|-------------9-----|
|--5----6-----------|-------------------|-------------------|
|-------------------|-------------------|-------------------|
|-------------------|-------------------|-------------------|
|-------------------|-------------------|-------------------|

___________________
|1. |
|--8--------9-------|-------------------|---------------------||
|-------------------|--11---------------|----------------6----||
|-------------------|-------------------|-------------8-----*-||
|-------------------|-------------------|-------6--8----------||
|-------------------|-------------------|-------------------*-||
|-------------------|-------------------|---------------------||

_________________
|2.
|-------------------||
|-------------------||
|--------------3----||
|-------------------||
|-------------------||
|-------------------||


*Key change*
||-------1--2-------1-----|--------------------4-|--6---6---4p3------|
||----4----------------2--|-------------------4--|--------------4----|
||-*-------------3--------|--------------1-h-3---|-------------------|
||------------------------|----------------------|-------------------|
||-*----------------------|----------------------|-------------------|
||------------------------|----------------------|-------------------|

___________________ ___________________
|1. | |2.
|---------------------||---------------------|
|---------------------||---------------4-h6--|
|--------------3----*-||---------------------|
|---------------------||---------------------|
|-------------------*-||---------------------|
|---------------------||---------------------|


|-----------4---------|--6----------7----7--|--9---9----8-p7-p6---|
|--7------------------|---------------------|---------------------|
|---------------------|---------------------|---------------------|
|---------------------|---------------------|---------------------|
|---------------------|---------------------|---------------------|
|---------------------|---------------------|---------------------|


|---------------------|---------------------|---------------------|
|---------------------|-----------7---------|--9---------7--------|
|---------------8--6--|--8------------------|---------------------|
|---------------------|---------------------|---------------------|
|---------------------|---------------------|---------------------|
|---------------------|---------------------|---------------------|


|---------------------|---------------------||
|--6---4---6----------|---------------------||
|---------------------|---------------------||
|---------------------|---------------------||
|---------------------|---------------------||
|---------------------|---------------------||



Comments, gripes, suggestions, and corrections are very welcome.

--> BigBadW4lf@netzero.net
VGJam Tabs Chrono Cross - "Fields of Time ~ Home World"
Tabs database last modified Tuesday, 01-Nov-2016 19:14:53 UTC.
Copyright © 1999 - 2016 VideoGameJam.com. All rights reserved.