VGJam Tabs Animal Crossing
Animal Crossing
"K.K. Steppe" - Guitar tab
Platform(s):GameCube
Composed by:Kenta Nagata, Toru Minegishi, Shinobu Tanaka
Tabbed by:Eric Pickerill
Last modified:2002-11-15
Print it:Original file (.TXT)
K.K. Steppe
Tabbed by: Eric Pickerill
Date:October 14th,2002
GIVE CREDIT WHERE CREDIT IS DUE!
Thanks
2002

K.K. Steppe
Animal Crossing

Standard Tuning

----------------------------------------------------------------------------
----------------------------------------------------------------------------
0-0--0-2-3-5-5-3-5-3-2--0-0--0-2-3-5-6-5--5-3-1-3-5--5-6-5-3-1-3-5--5-7-5-3-
---4------------------------4-----------------------------------------------
----------------------------------------------------------------------------
----------------------------------------------------------------------------

----------------------------------------------------------------------------
----------------------------------------------------------------------------
1-3-5--5-6-5-3-1-0----------------------------------------------------------
------------------3---------------------------------------------------------


VGJam Tabs Animal Crossing - "K.K. Steppe"
Tabs database last modified Tuesday, 01-Nov-2016 19:14:53 UTC.
Copyright © 1999 - 2016 VideoGameJam.com. All rights reserved.