VGJam Tabs Guitaroo Man
Guitaroo Man
"Nuff Respect" - Guitar tab
Platform(s):PlayStation 2
Tabbed by:Deezer
Last modified:2002-07-16
Print it:Original file (.TXT)
#----------------------------------PLEASE NOTE---------------------------------#
#This file is the author's own work and represents their interpretation of the #
#song. You may only use this file for private study, scholarship, or research. #
#------------------------------------------------------------------------------#


Gitaroo Man (PlayStation 2)
"Nuff Respect"

Originally composed by: ?
------------------------------------------------------------------------------
Tabbed by: Deezer (deezer@kontek.net)
For http://www.kontek.net/vgjam/
------------------------------------------------------------------------------

Standard tuning: (low to high) EADGBe


Riff A:
=======

-7-------7-------3-------5--------
-7-------7-------3-------5--------
----------------------------------
----------------------------------
----------------------------------
----------------------------------

Riff B:
=======

-7-------7-------7-------7--------
-7-------7-------7-------7--------
----------------------------------
----------------------------------
----------------------------------
----------------------------------

Repeat Riff A many times. Then play Riff B once, then it's back to Riff A.
This goes on for a while.


Another guitar (acoustic) floats this through every so often:

----0--
---0---
--0----
-2-----
-------
-------


Last modified: 07/16/2002

VGJam Tabs Guitaroo Man - "Nuff Respect"
Tabs database last modified Tuesday, 01-Nov-2016 19:14:53 UTC.
Copyright © 1999 - 2016 VideoGameJam.com. All rights reserved.