VGJam Tabs Chrono Cross
Chrono Cross
"On the Beach of Dreams ~ Another World" - Guitar tab
Platform(s):PlayStation
Composed by:Yasunori Mitsuda
Soundtrack:Chrono Cross Original Soundtrack (track D1-07)
Tabbed by:MrSpiffy
Last modified:2000-07-05
Print it:Original file (.TXT)
Hear it:MIDI file
~~~~~~~~~~~~~~~~~~~~~~
~ Dream of the Shore ~
~         ---        ~
~    Chrono Cross    ~
~         ---        ~
~         By:        ~
~  Yasunori Mitsuda  ~
~~~~~~~~~~~~~~~~~~~~~~

Tab by: MrSpiffy 

Created: 7/1/00

Comments:
I think this is the first tab of this piece, not to mention my first
tab as well. The supporting part is REALLY hard to play, so good luck 
with some of the weird fingerings. Also, I might add that only the Bass 
part is missing. If someone could PLEASE tab that out, it'd complete 
the entire piece. The part doesn't sound _that_ hard to do, but then 
again, I don't play Bass :p

This tab has two parts: the supporting Acoustic Guitar, along with
the top melody line, played by a violin in the original track. I would
recommend to tremolo the top part if you can. As usual, refer to the
original to figure out timing. The top melody line is tabbed with some
degree of accuracy with the guitar part. Enjoy!

Please send all questions/comments/corrections to the above address.

Notation:

h = Hammer on
p = Pull Off

Example:

e |---3h5p3---|  Play the note before the 'h' (3)
B |-----------|  and then "hammer" the fret after the
G |-----------|  'h' (5). Then, still holding the first
D |-----------|  note, pull off of the fret.
A |-----------|
E |-----------|

----------------------------
-   Acoustic Guitar Part   -
----------------------------

    [ Introduction... ]
e |--------1---0h1-----1---0h1-|-----1---0h1-----0-----|
B |----------------------------|---------------------3-|
G |------2---2-------2---2-----|-------2---------------|
D |----0-----------0-----------|---3-----------3---3---|
A |-(0)------------------------|-1-----------1---------|
E |----------------------------|-----------------------|

e |-----5---3h5-----6---5-|-----3---1h3-----1---0-|
B |-----------------------|-----------------------|
G |---2---5-------5---5---|---0---0-------0---0---|
D |-----------------------|-----------------------|
A |-3-----------3---------|-3-----------3---------|
E |-----------------------|-----------------------|

    [ Main Line... ]
e |-----1---0h1-----1---0h1-|-----1---0h1-----0-----|
B |-------------------------|---------------------3-|
G |---2---2-------2---2-----|-------2---------------|
D |-0-----------0-----------|---3-----------3---3---|
A |-------------------------|-1-----------1---------|
E |-------------------------|-----------------------|

e |-----5---3h5-----6---5-|-----3---1h3-----1---0-|
B |-------5---------------|-----------------------|
G |---2-----------5---5---|---0---0-------0---0---|
D |-----------------------|-----------------------|
A |-3-----------3---------|-3-----------3---------|
E |-----------------------|-----------------------|

e |-----1---0h1-----1---0h1-|-----1---0h1-----0-----|
B |-------------------------|---------------------3-|
G |---2---2-------2---2-----|-------2---------------|
D |-0-----------0-----------|---3-----------3---3---|
A |-------------------------|-1-----------1---------|
E |-------------------------|-----------------------|

e |-----5---3h5-----6---5-|-----3---1h3-----1---0-|
B |-----------------------|-----------------------|
G |---2---5-------5---5---|---0---0-------0---0---|
D |-----------------------|-----------------------|
A |-3-----------3---------|-3-----------3---------|
E |-----------------------|-----------------------|

e |-------------------------|-------------------------|
B |-----3---1h3-----3---1h3-|-----1---0h1-----1---0h1-|
G |-------------------------|-------------------------|
D |---0---3-------0---3-----|-------2-----------2-----|
A |-1-----------1-----------|-0-3---------0-3---------|
E |-------------------------|-------------------------|

e |-----0-----------0-------|------0-----------0-------|
B |---------1h3---------1h3-|----------1h3---------1h3-|
G |---2---2-------2---2-----|----2---2-------2---2-----|
D |-0-----------0-----------|-0------------0-----------|
A |-------------------------|--------------------------|
E |-------------------------|--------------------------|

e |-------------------------|-------------------------|
B |-----3---1h3-----3---1h3-|-----1---0h1-----1---0h1-|
G |-------------------------|-------------------------|
D |---0---3-------0---3-----|-------2-----------2-----|
A |-1-----------1-----------|-0-3---------0-3---------|
E |-------------------------|-------------------------|

e |-------------------------|-------------------0---1--0--|
B |-----0-----0-----0-----0-|-----2---0h2----3------------|
G |---------2-----------2---|-----------------------------|
D |-------0-----------0-----|-------2---------------------|
A |---2-----------2---------|-0-4-------------------------|
E |-3-----------3-----------|-----------------------------|

e |-5----------------|
B |------------------|
G |------------------|
D |------------------|
A |------------------|
E |------(3)----(0)--|

Repeat 1x


---------------------
-    Violin Part    -
-    (Guitar 2)     -
---------------------
   
    [ Introduction... ]
e |----------------------------|   
B |----------------------------|  
G |-------Rest 4 Measures------|
D |----------------------------|
A |----------------------------|
E |----------------------------|

    [  Main Line... ]
    [ Vibrato like mad! ]
e |-------------10~---------|-----------------------|
B |-------------------------|-6~-----------------6--|
G |-7~----------------------|-----------------7-----|
D |-------------------------|-----------------------|
A |-------------------------|-----------------------|
E |-------------------------|-----------------------|

e |-5~------------6---5---|-----------------------|
B |-----------------------|-8~--------------6--5--|
G |-----------------------|-----------------------|
D |-----------------------|-----------------------|
A |-----------------------|-----------------------|
E |-----------------------|-----------------------|

e |-------------10~---------|-----------------------|
B |-------------------------|-6~-----------------6--|
G |-7~----------------------|-----------------7-----|
D |-------------------------|-----------------------|
A |-------------------------|-----------------------|
E |-------------------------|-----------------------|

e |-5~------------6---5---|-3~--------------1--0--|
B |-----------------------|-----------------------|
G |-----------------------|-----------------------|
D |-----------------------|-----------------------|
A |-----------------------|-----------------------|
E |-----------------------|-----------------------|


e |-------------1~----------|-0h1p0~------------------|
B |-3~----------------------|-------------1~----------|
G |-------------------------|---------------------2---|
D |-------------------------|-------------------------|
A |-------------------------|-------------------------|
E |-------------------------|-------------------------|

e |-------------------------|--------------------------|
B |-1--3--3~----------------|--------------------------|
G |-------------------------|--------------------------|
D |-------------------------|--------------------------|
A |-------------------------|--------------------------|
E |-------------------------|--------------------------|

e |----------1~-------------|-0h1p0~------3~----------|
B |------3------------------|-------------------------|
G |-------------------------|-------------------------|
D |-------------------------|-------------------------|
A |-------------------------|-------------------------|
E |-------------------------|-------------------------|

e |---3~--------------------|-0h1p0~----------------------|
B |-------------3~----------|-----------------------------|
G |-------------------------|-----------------------------|
D |-------------------------|-----------------------------|
A |-------------------------|-----------------------------|
E |-------------------------|-----------------------------|

e |-~-----------------------|
B |-------------------------|
G |-------------------------|
D |-------------------------|
A |-------------------------|
E |-------------------------|

Repeat 1x

VGJam Tabs Chrono Cross - "On the Beach of Dreams ~ Another World"
Tabs database last modified Tuesday, 01-Nov-2016 19:14:53 UTC.
Copyright © 1999 - 2016 VideoGameJam.com. All rights reserved.