VGJam Tabs Chrono Cross
Chrono Cross
"On the Beach of Dreams ~ Another World" - Bass tab
Platform(s):PlayStation
Composed by:Yasunori Mitsuda
Soundtrack:Chrono Cross Original Soundtrack (track D1-07)
Tabbed by:Issaqua
Last modified:2001-06-27
Print it:Original file (.TXT)
Hear it:MIDI file
                         CHRONO CROSS - ANOTHER WORLD
                        As written by Yasunori Mitsuda 
                  (From the 2001 CHRONO CROSS SOUNDTRACK)

Music by Yasunori Mitsuda 
Arranged by Travis Ragle
Transcribed by Geoffrey Beint

--
Took about an hour and a half to transcribe, using powertab import then transcribing
it properly so it can actually be played by human hands...
--
This transcription is written for bass, guitar version should be coming shortly...
(contact me if you want it - Issaqua@barrysworld.com - )
--
As for Copyrights, screw them.  This file can be edited, painted, made into a sandwich whatever,
as long as my name isn't removed.  If you edit the tab, add your name in somewhere, and contact
me if you want me to change the original...
--

  Q=86
 4/4
  Gtr I
  H    Q  E E   H    +Q.   S S   H    +E  E S S E   H    +E. S S S E
|-------------|----------------|------------------|------------0-2-0-|
|-------------|-0----(0)-------|------------------|------------------|
|-----------0-|------------3-5-|----------8-----8-|------------------|
|-------------|----------------|-6----(6)---6-6---|-1----(1)-1-------|


  H    +E. S S S E   H    +Q.   S S   H.      E E   H    +E. S S S E
|------------------|----------------|-------------|-------------------|
|------------------|----------------|-------------|------------5-7-5--|
|-3----(3)-3-3-5-3-|-5----(5)---3-5-|---------8---|----------3--------|
|------------------|----------------|-6---------6-|-1----(1)----------|


  H    +E. S S S E   H    +Q.   E   H    +E  E +E  E   H    +E  E +E  E
|------------------|--------------|------------------|-------------------|
|------------------|--------------|------------------|-3----(3)-------3--|
|-3----(3)-3-3-5-3-|-5----(5)---3-|-1----(1)-------1-|----------3-(3)----|
|------------------|--------------|----------1-(1)---|-------------------|


  H    +E  E E E   H    +Q.   E   Q.   E Q  Q    Q.   E Q  Q
|----------------|--------------|--------2-----|------2-7-----|
|----------------|--------------|------2-------|-0------------|
|-3----(3)-3---3-|-1----(1)---1-|-0---------0--|-----------5--|
|------------3---|--------------|--------------|--------------|


  E S S S S E +Q   Q    Q.   E Q  Q    Q.   E Q  Q    H    +E  E E E
|-7-------------------|--------------|--------------|----------------|
|---5-7---5-7-(7)-----|--------8-----|--------7-----|----------------|
|------------------5--|------8-------|------7-------|------------5---|
|---------------------|-6---------6--|-5---------5--|-3----(3)-3---3-|


  H    +E. S S S E   Q.   E +Q   Q    H    +Q.   E   H    +Q.   E
|------------0-2-0-|-2----0-(0)-----|--------------|---------------|
|----------2-------|-------------2--|-0----(0)---0-|---------------|
|-0----(0)---------|----------------|--------------|-1----(1)---1--|
|------------------|----------------|--------------|---------------|


  H    +Q.   E   H.      Q    H    +Q.   S S   H.      E E
|--------------|------------|----------------|--------------|
|--------------|------------|----------------|--------------|
|--------------|-3----------|-5----(5)---3-5-|---------8----|
|-1----(1)---1-|---------3--|----------------|-6---------6--|


  H    +E. S S S E   H    +E. S S S E   H    +Q.   E   H    +E  E +E  E
|------------------|------------------|--------------|------------------|
|------------5-7-5-|------------------|--------------|------------------|
|----------3-------|-3----(3)-3-3-5-3-|-5----(5)---3-|-1----(1)-------1-|
|-1----(1)---------|------------------|--------------|----------1-(1)---|


  H    +E  E +E  E   H    +E  E E E   H    +Q.   E   Q.   E Q  Q
|------------------|----------------|--------------|--------2-----|
|-3----(3)-------3-|----------------|--------------|------2-------|
|----------3-(3)---|-3----(3)-3---3-|-1----(1)---1-|-0---------0--|
|------------------|------------3---|--------------|--------------|


  Q.   E Q  Q    E S S S S E +Q   Q    Q.   E Q  Q    Q.   E Q  Q
|------2-7-----|-7-------------------|--------------|--------------|
|-0------------|---5-7---5-7-(7)-----|--------8-----|--------7-----|
|-----------5--|------------------5--|------8-------|------7-------|
|--------------|---------------------|-6---------6--|-5---------5--|


  H    +E  E E E   H    +E. S S S E   Q.   E +Q   Q    H    +Q.   E
|----------------|------------0-2-0-|-2----0-(0)-----|---------------|
|----------------|----------2-------|-------------2--|-0----(0)---0--|
|------------5---|-0----(0)---------|----------------|---------------|
|-3----(3)-3---3-|------------------|----------------|---------------|


  H    +Q.   E   H    +Q.   E   H.      Q
|--------------|--------------|------------*|
|--------------|--------------|------------*|
|-1----(1)---1-|--------------|-3----------*|
|--------------|-1----(1)---1-|---------3--*|



***************************************************************************************
* Generated using Power Tab Editor by Brad Larsen - http://powertab.guitarnetwork.org *
***************************************************************************************
Powertab really is the best free tab editor I've ever come across, so take a look at the website.

VGJam Tabs Chrono Cross - "On the Beach of Dreams ~ Another World"
Tabs database last modified Tuesday, 01-Nov-2016 19:14:53 UTC.
Copyright © 1999 - 2016 VideoGameJam.com. All rights reserved.