VGJam Tabs Chrono Cross
Chrono Cross
"Arni Village ~ Another" - Guitar tab
Platform(s):PlayStation
Composed by:Yasunori Mitsuda
Soundtrack:Chrono Cross Original Soundtrack (track D1-08)
Tabbed by:SJ
Last modified:2002-07-04
Print it:Original file (.TXT)
Hear it:MIDI file
Another Aruni
         Chrono Cross
                 Tabbed by SJ (kirei_008@hotmail.com)
         http://angelfire.com/anime3/chd

 I started tabbing the guitar, but it's too hard. I could always
 take the midi through guitar pro (which pretty much tabs it for you)
 but anyone can do that.

 I tabbed the guitar opening and the piano. -/- means that whatever 
 is after the / is the guitar playing (for the rest of that line) 


 Opening
 ---------------------
 -------8-9------8-6--
 -------8-8------8-7-- 2
 ----8---8-----8--8---
 --6---------6--------
 ---------------------

 Piano
 ----15--16-15-13---13--------------15--16-15-13----13----18------
 ----------------16----11------------------------16---------------
 -15----------------------13-----15--------------------15---------
 -----------------------------------------------------------------
 -----------------------------------------------------------------
 -----------------------------------------------------------------

 -16-15--16-15-13----13----------11-13--------\-------------------
 -----------------16----11-------------11-9-8-\-----------11------
 --------------------------13-----------------\---8-10-12---------
 ---------------------------------------------\-8-----------------
 ---------------------------------------------\-------------------
 ---------------------------------------------\-------------------

 ----------------------11-10-11-----------------------------------
 ----11--9--------11-9----------11-9-8----------9-----------------
 -12--------10-12-----------------------8-10-12---10--8-10-8------
 -----------------------------------------------------------------
 -----------------------------------------------------------------
 -----------------------------------------------------------------

 -\-------------------
 -\-------------------
 -\---8-10-12-13-12---
 -\-8------------13---
 -\-------------------
 -\-------------------

 ------------------------------------------------------
 ---------9-9--8-9-11--------------9-9-8------------9--
 ----8-6-------------------8-6--10----------8-6-10-----
 -10--------------------10---------------10------------
 ------------------------------------------------------
 ------------------------------------------------------

 ----------------------------------
 -9--11-9--11-9----------11--------
 ----------------10-8-10----10-8-7-
 ----------------------------------
 ----------------------------------
 ----------------------------------

   For more anime tabs + J-pop and J-rock tabs, check out 
           http://angelfire.com/anime3/chd
VGJam Tabs Chrono Cross - "Arni Village ~ Another"
Tabs database last modified Tuesday, 01-Nov-2016 19:14:53 UTC.
Copyright © 1999 - 2016 VideoGameJam.com. All rights reserved.