VGJam Tabs Chrono Cross
Chrono Cross
"Termina ~ Another" - Guitar tab
Platform(s):PlayStation
Composed by:Yasunori Mitsuda
Soundtrack:Chrono Cross Original Soundtrack (track D1-12)
Tabbed by:Josh Boyle
Last modified:2002-04-16
Print it:Original file (.TXT)
#-----------------------------------------------------------------------------#
#----------File created using Notepad for Windows XP Professional-------------#
#-----------------------------------------------------------------------------#

Author/Artist: Yasonori Mitsuda
Title: Another Termina
Transcribed by: Josh Boyle
Email: AngelicLegacy@hotmail.com

I'm afraid that whoever tabbed this song out the first time, although it 
was a valiant effort, failed miserably in the attempt.  Here is my version of 
the song taken directly from the Chrono Cross OST CD Compilation.  The song 
is not that tough but once again "tough" is a relative term with regards to the 
skill of the guitarist.  At any rate, have at it!

Introduction (00:01)
_________________________________________________________________________________
                                                                                 |
----12-12-12----12-12-12----12-12-12----12-14-12-10-12---------------------------|
-10----------10----------10----------10------------------------------------------|
---------------------------------------------------------------------------------|
---------------------------------------------------------------------------------|
---------------------------------------------------------------------------------|
---------------------------------------------------------------------------------|
                                                                                 |
                                                                                 |
----12-12-12----12-12-12----12-12-12----9-10-7-9p7-------------------------------|
-10----------10----------10----------10------------10----------------------------|
---------------------------------------------------------------------------------|
---------------------------------------------------------------------------------|
---------------------------------------------------------------------------------|
---------------------------------------------------------------------------------|
_________________________________________________________________________________|



Verse (00:10)
_________________________________________________________________________________
                                                                                 |
----12----10----9-------------------12----9-10----9------------------------------|
-10------------------12-10-12----10------------------12--10----------------------|
---------------------------------------------------------------------------------|
---------------------------------------------------------------------------------|
---------------------------------------------------------------------------------|
---------------------------------------------------------------------------------|
_________________________________________________________________________________|



Bridge 1 (00:29)
_____________________________________________________________________________________________
                                                                                             |
------------------------------------------------------------------9--10----9h10p9------------|
-10--9----10-12-10-----------------------10--9----10-12-10----12-------------------12--10/12-|
----------------------9--11--9h11p9\7-9------------------------------------------------------|
---------------------------------------------------------------------------------------------|
---------------------------------------------------------------------------------------------|
---------------------------------------------------------------------------------------------|
_____________________________________________________________________________________________|



This next riff can be a bit tricky.  The trill with a downward slide should 
be played with a sort of "rolling" effect.  Have fun!

Interlude (00:43)
______________________________________________________________________________
                                                                              |
------------------------------------------------------------------------------|
--------------------------------------10--9-10--------------------------------|
---9---7---6--------------------9--------------9------------------------------|
-7---7---7---7-9h11p9\7-6-6/7-----7--------------11--12h14h16-----------------|
------------------------------7---------------------------------14--12--11----|
------------------------------------------------------------------------------|
______________________________________________________________________________|



This riff is very slow and delicate and is played with great sustain and 
vibrato at just about every note.

Bridge 2 (00:56)
______________________________________________________________________________
                                                                              |
------------------------------------------------------------------------------|
------------------------------------------------------------------------------|
------------------------------------------------------------------------------|
-----------------14----11h12p11-----------------------------------------------|
-12--------14--------------------12------/15--14h15p14--12--------------------|
-------------------------------------12---------------------------------------|
______________________________________________________________________________|


Repeat


In the background throughout the entire song, there is a "froglike" rythym riff playing.
This is closest I came to simulating that sound on the guitar for the purposes of this
song:

Background (00:01 - 02:38)
------------------------------
------------------------------
------------------------------
-2-----------2------2---------
----0-0-0-0-----0-0---0-------
------------------------------

If there are any questions about this tab or any possible improvements, 
please feel free to let me know at:   AngelicLegacy@hotmail.com

Also:  If you are pleased with the quality of this tab, then let me know 
that as well and I'll continue to tab songs out.  Thanx!

VGJam Tabs Chrono Cross - "Termina ~ Another"
Tabs database last modified Tuesday, 01-Nov-2016 19:14:53 UTC.
Copyright © 1999 - 2016 VideoGameJam.com. All rights reserved.