VGJam Tabs Chrono Cross
Chrono Cross
"Fragment of a Dream" - Guitar tab
Platform(s):PlayStation
Composed by:Yasunori Mitsuda
Soundtrack:Chrono Cross Original Soundtrack (track D1-20)
Tabbed by:Fin Nguyen
Last modified:2001-06-28
Print it:Original file (.TXT)
Title: Dream Fragments (a.k.a. Fragments of Dreams)
Artist: Yasunori Mitsuda
Album: Chrono Cross OSV
 
Transcribed by Fin Nguyen (fin_nguyen@hotmail.com)
Original sheet music by John Isip (www.geocities.com/chocobosheets)
This is the shortened version of dream fragments, but there is a longer and more complicated version that needs two people to play. Just ask me and Iíll give you the extended version or check around at the site. Enjoy this peaceful piece.

Standard tuning - EADGBE 
Time signature - four four. 
Key signature - D Major (any natural C or F notes are my fault and should all be sharps)
Important - Try to sustain all the notes for as long as possible since there are a lot of ties and semibreves. And there is no such thing as the 320th fret, theyíre just eighth notes.

bolded notes (some of these Iím not sure of, sorry) - arpeggio (play all the notes similar to a chord, one by one and quickly, or just strum it)
  
    |               |               |               |               |
E-|---------2-3---5---0---------------------2-----------------------|
B-|-----------------------3---2-----2---0---------------3---2-------|
G-|-------2-----------------------------------------------------2---|
D-|-----0---------------2---------------4---------------4-------4---|
A-|-----------------0---------------2---------------2-------0-------|
E-|-3---------------------------------------------------------------|

    |               |               |               |               |
E-|---------2-3---5---0-------------0-----------0---2-----320-------|
B-|-----------------------3---2-----0-----0---------2---------------|
G-|-------2-------------------------2---------------3---------------|
D-|-----0---------------2-----------2-------2---4---4---------------|
A-|-----------------0-------------------2---------------4---1---4---|
E-|-3---------------------------------------------------------------|

    |               |               |               |               |
E-|---------2-3---5---0-------------------2-------------------0-2---|
B-|-----------------------3---2-----2---0-------0-----------3-----3-|
G-|-------2---------------------------------------------------------|
D-|-----0---------------2---------------0---4-----------4-------2---|
A-|-----------------0---------------2---------------2-------2-------|
E-|-3---------------------------------------------------------------|

    |               |               |               |               |
E-|-----------0-2-0---------0---------------------------------------|
B-|---------3-------------------3-2-----------------------0-----2---|
G-|---------0---------------2-----3-----------------3-----------3---|
D-|-----0---------------2-----------------------4---4---------------|
A-|-----------------0---------------------4-------------------------|
E-|-3-------------------------------2-------------------------------|

    |               |               |               |               |
E-|-------2---------0-----5---------2-------------------------------|
B-|-0-----3---------2-----5---------2-----2-----2---3---2---3-------|
G-|-------------0---------------2---2---------------2-----------2---|
D-|---------0---------------2---------------4-------4-----------2---|
A-|-----2-----------0---4---------------4-------4---2-------0-------|
E-|-3-------------------------------2-------------------------------|

    |               |               |               |               |
E-|-------2---------0-----5---------2-----9-----7-------------------|
B-|-0-----3---------2-----5---------3-----10-0-----------3---2-------|
G-|-------------0---------------2-------------------------------2---|
D-|---------0---------------2-----------4-------4-------4-------2---|
A-|-----2-----------0---4-----------2---------------2-------0-------|
E-|-3---------------------------------------------------------------|

    |               |               |               |               |
E-|-------2---------0-----------------------------------------------|
B-|-0-----3---------------2---------------2-----2---3---2---3-------|
G-|-------------0---------------2---2---------------2-----------2---|
D-|---------0---------------2---------------4-------4---4-------2---|
A-|-----2-----------0---4---------------4-------4---2-------0-------|
E-|-3-------------------------------2-------------------------------|

    |               |               |               |               |
E-|-------2---------0-----------------------------------------------|
B-|-0-----3---------2-----3-----2---0-------------------------------|
G-|---------------------------------2-------------------------------|
D-|---------0---------------2-------2-------------------------------|
A-|-----2-------2---0---4-------4---2-------------------------------|
E-|-3---------------------------------------------------------------|
VGJam Tabs Chrono Cross - "Fragment of a Dream"
Tabs database last modified Tuesday, 01-Nov-2016 19:14:53 UTC.
Copyright © 1999 - 2016 VideoGameJam.com. All rights reserved.