VGJam Tabs Chrono Cross
Chrono Cross
"Voyage ~ Home World" - Guitar tab
Platform(s):PlayStation
Composed by:Yasunori Mitsuda
Soundtrack:Chrono Cross Original Soundtrack (track D2-05)
Tabbed by:Adam Estabrook
Last modified:2000-07-30
Print it:Original file (.TXT)
Hear it:MIDI file
Song Title: Voyage - Home World
Game: Chrono Cross
Composer: Yasunori Mitsuda

Tabbed By: Adam Estabrook 
email: adam2015@secondimpact.com
Note: Feel free to correct, comment, or critacize my work.

**Listen to song for rhythm**


e|-----------------------------
B|------------------1-0--------
G|---0-----2-----0-------------
D|-0-----0-----0---------------
A|-----------------------------
E|-----------------------------

Part 1 (Repeat 2x)
e|---8-7-5-------------------8-7-10------------------
B|---------7-8-------------8--------8-8--10h12p10----
G|-7-----------7-7h9p5---7---------------------------
D|---------------------------------------------------
A|---------------------------------------------------
E|---------------------------------------------------

Part 2
e|-----------9-10-12---------------------------------
B|-10-12-12----------10---12--10-8-7--8-10-----------
G|-----------------------------------------7---------
D|---------------------------------------------------
A|---------------------------------------------------
E|---------------------------------------------------

e|-----------9-10-12---------------------------------
B|-10-12-12----------10---12--10-10--9--10-----------
G|---------------------------------------------------
D|---------------------------------------------------
A|---------------------------------------------------
E|---------------------------------------------------

Part 3
e|---------------------------------------------------
B|-8h10p8-7-----------10----10-12-14-12--------------
G|----------7---9-7-7-------------------12-----------
D|---------------------------------------------------
A|---------------------------------------------------
E|---------------------------------------------------

e|---------------------------------------------------
B|-10--8-7-------------------------------------------
G|---------9--7---9--11--12--11--12------------------
D|---------------------------------------------------
A|---------------------------------------------------
E|---------------------------------------------------

VGJam Tabs Chrono Cross - "Voyage ~ Home World"
Tabs database last modified Tuesday, 01-Nov-2016 19:14:53 UTC.
Copyright © 1999 - 2016 VideoGameJam.com. All rights reserved.