VGJam Tabs Chrono Cross
Chrono Cross
"Galdorb ~ Home" - Guitar tab
Platform(s):PlayStation
Composed by:Yasunori Mitsuda
Soundtrack:Chrono Cross Original Soundtrack (track D2-06)
Tabbed by:Jonathan Bouldin
Last modified:2000-11-15
Print it:Original file (.TXT)
Hear it:MIDI file
#-----------------------------------------------------------------------------#
#-- File created with Instab - http://www.pconline.com/~smcarey/instab.html --#
#-----------------------------------------------------------------------------#

Author/Artist: Yasonori Mitsuda
Title: Home Gardrob
Album: Chrono Cross
Transcribed by: Jonthan Bouldin
Email: i-am-a@inorbit.com

If this tab comfuses you a bit, just listen to the song.
That should clear up any timing or repetition questions
you have.

------------------------------------------------|-----------------------------
---3-3---3-3---3-3---3-3---3-3---4-4---5-5---6-6|-----------------------------
-0-----0-----0-----0-----0-----0-----0-----0----|-----------------------------
------------------------------------------------|-----------------------------
------------------------------------------------|-----------------------------
------------------------------------------------|-----------------------------
 Guitar #1, Intro

------------------------------------------------------------|-----------------
-----1-----------0-------1-----------0-----1---------3------|-----------------
-------0-------0---0---2---2-----0-------0---0-----2---2---0|-----------------
---2-----2-------------------2-----0-------------0-------0--|-----------------
-3---------3---------0-----------------3-------3------------|-----------------
-------------3-----------------3----------------------------|-----------------
 C           G       Am        G       C         D

------------------------------------------------|-----------------------------
---3-3---3-3---3-3---3-3---3-3---4-4---5-5---1-1|-----------------------------
-0-----0-----0-----0-----0-----0-----0-----0----|-----------------------------
------------------------------------------------|-----------------------------
------------------------------------------------|-----------------------------
------------------------------------------------|-----------------------------
 Verse

----------------------------------------------------------|-------------------
-----1---------0-------1-------------0-----1---------3----|-------------------
---0---0-----0---0---2---2-------0-------0---------2---2--|-------------------
---------------------------2---0---0---------2---0-------0|-------------------
-3-------3---------0-------------------3-------3----------|-------------------
-----------3-----------------3----------------------------|-------------------
 Bridge    G       Am        G         C         D

-0-----0-----0-----0-----0-----0----3-----0|----------------------------------
-0-----1-----0-----1-----0-----1----3-----2|----------------------------------
-0-----0-----0-----0-----0-----0----0-----2|----------------------------------
-2-----2-----2-----2-----2-----2----0-----2|----------------------------------
-2-----3-----2-----3-----2-----3----2-----0|----------------------------------
-0-----------0-----------0----------3------|----------------------------------
 (The excact notes are too hard to make out for this part)

---------------------------------------------------------3--|-----------------
-7-7-7--8-8-----5-5-5--6-6-----3-3-3--4-4-----1-1-1--3-3---3|-----------------
-7-7-7--7-7--7--5-5-5--5-5--5--3-3-3--3-3--3--1-1-1--3-3----|-----------------
-7-7-7--9-9--5--5-5-5--7-7--3--3-3-3--5-5--1--1-1-1--3-3----|-----------------
------------------------------------------------------------|-----------------
------------------------------------------------------------|-----------------
 Chorus

-----------------|------------------------------------------------------------
-10--5--8-7-8-7-8|------------------------------------------------------------
-9---5--7-7-7-7-7|------------------------------------------------------------
-11--5--9-7-9-7-9|------------------------------------------------------------
-----------------|------------------------------------------------------------
-----------------|------------------------------------------------------------
                   End of Guitar #1

-10-7-10-8-5-8-7---5-------------7--10-8-10-8-5-8-7---5----7-5|---------------
-----------------8--------7-8-10--------------------8----6----|---------------
----------------------7-9-------------------------------------|---------------
--------------------------------------------------------------|---------------
--------------------------------------------------------------|---------------
--------------------------------------------------------------|---------------
 Guitar #2, Intro

------------10-8--7-------------------------------|---------------------------
-7-8-10-8-----------10-8--10-8--5-7-8--8h10p8-7--8|---------------------------
----------7---------------------------------------|---------------------------
--------------------------------------------------|---------------------------
--------------------------------------------------|---------------------------
--------------------------------------------------|---------------------------


-10-8-10-8-5-8-7---5-------------7--10-8-10-11-10-8-7-5-7-8--8-7h8p7-----|----
-----------------8--------7-8-10-------------------------------------10-8|----
----------------------7-9------------------------------------------------|----
-------------------------------------------------------------------------|----
-------------------------------------------------------------------------|----
-------------------------------------------------------------------------|----
 Verse

------------10-8--7-------------------------------|---------------------------
-7-8-10-8-----------10-8--10-8--5-7-8--8h10p8-7--8|---------------------------
----------7---------------------------------------|---------------------------
--------------------------------------------------|---------------------------
--------------------------------------------------|---------------------------
--------------------------------------------------|---------------------------
 Bridge

-----------10-10-8-7---------------------------------------------------|------
-10-8--7-8-----------10--8-10-8-7----------5-7-8-7--7-8-7-8-7-8-7-8-7-8|------
----------------------------------7--4-5-7-----------------------------|------
-----------------------------------------------------------------------|------
-----------------------------------------------------------------------|------
-----------------------------------------------------------------------|------


------7----7-8-7---------------5-------|--------------------------------------
-8-10---10-------10-8-10---------------|--------------------------------------
-------------------------9-7-6---6--7-9|--------------------------------------
---------------------------------------|--------------------------------------
---------------------------------------|--------------------------------------
---------------------------------------|--------------------------------------


-----------------------------------------------3--|---------------------------
-7-7-7-8-8---5-5-5-6-6---3-3-3-4-4---1-1-1-3-3---3|---------------------------
-----------7-----------5-----------3--------------|---------------------------
--------------------------------------------------|---------------------------
--------------------------------------------------|---------------------------
--------------------------------------------------|---------------------------
 Chorus

-5---3-2-3-2-3-------------------------|--------------------------------------
---5------------------12-13-12---------|--------------------------------------
----------------12-14----------14-12---|--------------------------------------
-------------------------------------12|--------------------------------------
---------------------------------------|--------------------------------------
---------------------------------------|--------------------------------------

VGJam Tabs Chrono Cross - "Galdorb ~ Home"
Tabs database last modified Tuesday, 01-Nov-2016 19:14:53 UTC.
Copyright © 1999 - 2016 VideoGameJam.com. All rights reserved.