VGJam Tabs Guitaroo Man
Guitaroo Man
"Resurrection" - Guitar tab
Platform(s):PlayStation 2
Tabbed by:Deezer
Last modified:2002-07-17
Print it:Original file (.TXT)
#----------------------------------PLEASE NOTE---------------------------------#
#This file is the author's own work and represents their interpretation of the #
#song. You may only use this file for private study, scholarship, or research. #
#------------------------------------------------------------------------------#


Gitaroo Man (PlayStation 2)
"Resurrection"

Originally composed by: ?
------------------------------------------------------------------------------
Tabbed by: Deezer (deezer@kontek.net)
For http://www.kontek.net/vgjam/
------------------------------------------------------------------------------

Symbols used:
 / = slide up
 \ = slide down

Standard tuning: (low to high) EADGBe


Chords used:

 E       G       F#(11)  F(addB) A(9)
-------------------------------------
-0-------0-------0-------0-------0---
-1-------4-------3-------2-------6---
-2-------5-------4-------3-------7---
-2-------5-------4-------3-------7---
-0-------3-------2-------1-------5---

Not sure about the name on the F(addB) chord.

Intro / Main riff:
==================

(Strumming guideline; small variations occur as song progresses.)

-----------------------------------------------------------------
---------0-----------0---0---------------0---------------0-------
---------1---1-/-4---4---4-----4---------3---3-\-2---2---2-----2-
---------2---2-/-5-5-5---5---5-5---------4---4-\-3-3-3---3---3-3-
-2-------2---2-/-5-5-5---5---5-5-4-------4---4-\-3-3-3---3---3-3-
-0-----------0-/-3-3-----3---3---2-----------2-\-1-1-----1---1---

Repeat a lot.

Then:
=====

(There's more strumming, but you'll figure it out.)

-----------------------------------------------------------------
-0-------------------------------0-------------------------------
-6-------------------------------4-------------------------------
-7-------------------------------5-------------------------------
-7-------------------------------5-------------------------------
-5-------------------------------3-------------------------------

-----------------------------------------------------------------
-0-------------------------------0-------------------------------
-1-------------------------------3-------------------------------
-2-------------------------------4-------------------------------
-2-------------------------------4-------------------------------
-0-------------------------------2-------------------------------

-----------------------------------------------------------------
-0-------------------------------0-------------------------------
-6-------------------------------4-------------------------------
-7-------------------------------5-------------------------------
-7-------------------------------5-------------------------------
-5-------------------------------3-------------------------------

-----------------------------------------------------------------
-0-------------------------------0-------------------------------
-3-------------------------------2-------------------------------
-4-------------------------------3-------------------------------
-4-------------------------------3-------------------------------
-2-------------------------------1-------------------------------

Back to main riff.

Throughout all this, lead guitar plays a sick 3 minute solo which I cannot
tab at this moment.


Last modified: 07/17/2002

VGJam Tabs Guitaroo Man - "Resurrection"
Tabs database last modified Tuesday, 01-Nov-2016 19:14:53 UTC.
Copyright © 1999 - 2016 VideoGameJam.com. All rights reserved.