VGJam Tabs Chrono Cross
Chrono Cross
"A Light Already Lost" - Guitar tab
Platform(s):PlayStation
Composed by:Yasunori Mitsuda
Soundtrack:Chrono Cross Original Soundtrack (track D2-17)
Tabbed by:Stampeed 2002
Last modified:2002-04-09
Print it:Original file (.TXT)
Title: Previously Lost, Lamp
Composer: Yasunori Mitsuda
Soundtrack: Chrono Cross OST
Tabbed by: Stampeed 2002 (star_charter@yahoo.com) 

Standard Tuning (EADGBE)

This piece uses 2 guitars. One plays mostly the bass part, and the other the melody.

Listen to song to find timing. I tried to line up timing with the columns, so the 2 guitars
play the notes at the same time they read the same column.

Guitar 1 play this 2wice
e-------------------------------
B----------------------0--------
G----6------4------2-------2----
D---6--6---4--4---2--2---2----2-
A-4-------2-----0---------------
E-------------------------------

Guitar 2 play this 2wice along with Guitar 1
e-----0-5-4---------------------
B---4-------4--2-4--2-4--2---4-2
G-------------------------------
D-------------------------------
A-------------------------------
E-------------------------------

Guitar 1 play this once to end.
e---------------------------------------------------
B---------------------------------------2--------0--
G--------------4------4------4----1-------1-----6---
D------4---6---------------4----1---------------6---
A----4---4---4---4---0---2---------------------4----
E--2---------------4--------------------------------

Guitar 2 play this to end.
e--------------0-2-4---5-2-0----------0-4-2-11-7----
B--------0-2-4------------------4---4---------------
G----1-2--------------------------------------------
D---------------------------------------------------
A---------------------------------------------------
E---------------------------------------------------

Thanks Spawnosatan for the fix on the intro! I appreciate it.

VGJam Tabs Chrono Cross - "A Light Already Lost"
Tabs database last modified Tuesday, 01-Nov-2016 19:14:53 UTC.
Copyright © 1999 - 2016 VideoGameJam.com. All rights reserved.