VGJam Tabs Chrono Cross
Chrono Cross
"Victory ~ A Cry in Summer" - Guitar tab
Platform(s):PlayStation
Composed by:Yasunori Mitsuda
Soundtrack:Chrono Cross Original Soundtrack (track D2-21)
Tabbed by:Adam Estabrook
Last modified:2000-07-30
Print it:Original file (.TXT)
Hear it:MIDI file
Song Title: Victory - Summer's Cry
Game: Chrono Cross
Composer: Yasunori Mitsuda

Tabbed By: Adam Estabrook 
email: adam2015@secondimpact.com
Note: Feel free to correct, comment, or critacize my work.

**Listen to song for rhythm**


*Main theme*
e|----------------------------------------------------
B|----------------------------------------------------
G|-7--------7--6-6-7---------7--------7--6--9--11-11--
D|----5-7-9----------7----------5-7-9-----------------
A|----------------------------------------------------
E|----------------------------------------------------

e|----------------------------------------------------
B|----------------------------------------------------
G|-11-12-11-9---7--------7--6-6-7---------------------
D|-----------------5-7-9----------7--5----------------
A|----------------------------------------------------
E|----------------------------------------------------

e|----------------------------------------------------
B|----------------------------------------------------
G|---------------------------5-7----------------------
D|-0-2-3--2-3-5---3-5-7--5-7--------------------------
A|----------------------------------------------------
E|----------------------------------------------------

VGJam Tabs Chrono Cross - "Victory ~ A Cry in Summer"
Tabs database last modified Tuesday, 01-Nov-2016 19:14:53 UTC.
Copyright © 1999 - 2016 VideoGameJam.com. All rights reserved.