VGJam Tabs Chrono Cross
Chrono Cross
"Magical Dreamers" - Guitar tab
Platform(s):PlayStation
Composed by:Yasunori Mitsuda
Soundtrack:Chrono Cross Original Soundtrack (track D2-26)
Tabbed by:Jonathan Seely
Last modified:2000-09-04
Print it:Original file (.TXT)
Hear it:MIDI file
Game: Chrono Cross
Title: Magical Dreamers (Nikki's Marbule Concert)
Composer: ?...
Transcribed By: Jonathan Seely (hobo_joe_66@hotmail.com)
Note: Play all of this with distortion

Intro:
Guitar 1:
e|-------------------------------------------------------
B|-------------------------------------------------------
G|-2-2-4-5-7--2-2-4-4>5-4-0--2-2-4-5-7-2-9-10-9-7-5-7-5-4
D|-------------------------------------------------------
A|-------------------------------------------------------
E|-------------------------------------------------------

|--------------------------------------------|
|--------------------------------------------|
|-2-2-4-5-7--2-2-4-4>5-4-0--2-2-4-5-7-2-2~~~-|
|--------------------------------------------|
|--------------------------------------------|
|--------------------------------------------|

Guitar 2:
e|-1---3-------3---1---3---5---3--|
B|-1---3-------3---1---3---5---3--|
G|-2---4-------4---2---4---6---4--|
D|-3---5-------5---3---5---7---5--|
A|-3---5-------5---3---5---7---5--|
E|-1---3---1---3---1---3---5---3--|

|-1---3-------3---1---3---3--|
|-1---3-------3---1---3---3--|
|-2---4-------4---2---4---4--|
|-3---5-------5---3---5---5--|
|-3---5-------5---3---5---5--|
|-1---3---1---3---1---3---3--|

Part 1:

e|-----------5-----------------------------------------5-----------
B|-----8-8-8---8-6-5-6-------6-6-5-------5-------8-8-8---8-6-5-6---
G|-5-7-----------------7-5-7-------7-5-7---7-5-7-----------------7-
D|-----------------------------------------------------------------
A|-----------------------------------------------------------------
E|-----------------------------------------------------------------

|----------------------
|----12>13-12-10-8-6-8-
|5-7-------------------
|----------------------
|----------------------
|----------------------
PM ^
Part 2:
e|-5-5-7-8-10--5-5-7-7>8-7---5-5-7-8-10---12-13-12-10-8-10-8-7
B|-------------------------8------------8----------------------
G|------------------------------------------------------------
D|------------------------------------------------------------
A|------------------------------------------------------------
E|------------------------------------------------------------

|-5-5-7-8-10--5-5-7-7>8-7---5-5-7-8-10---5~-|
|-------------------------8------------8----|
|-------------------------------------------|
|-------------------------------------------|
|-------------------------------------------|
|-------------------------------------------|

Play Order:

Intro
Part 1
Part 2
Part 1
Part 2
Part 1
Part 2
Part 1
Part 2
Part 1

Hope you can understand this, just listen to the song to get the timing
and stuff.

This is my first tab i have put on the net, so if you have comment's,
questions, tab fixes, or just want to say "HI", Please E-Mail me at
hobo_joe_66@hotmail.com
VGJam Tabs Chrono Cross - "Magical Dreamers"
Tabs database last modified Tuesday, 01-Nov-2016 19:14:53 UTC.
Copyright © 1999 - 2016 VideoGameJam.com. All rights reserved.