VGJam Tabs Chrono Cross
Chrono Cross
"Dragon's Prayer" - Guitar tab
Platform(s):PlayStation
Composed by:Yasunori Mitsuda
Soundtrack:Chrono Cross Original Soundtrack (track D3-08)
Tabbed by:Paul Hasas
Last modified:2000-10-25
Print it:Original file (.TXT)
Hear it:MIDI file
Enjoy...

Title: Dragon's Prayer
Game: Chrono Cross
Composer: Yasunori Mitsuda


(Partial) TAB by W4lf (BigBadW4lf@netzero.net)


Standard Tuning...let ring throughout.

This starts at about 1 minute, 4 seconds into the song...


E|--------------------|
B|--------------------|
G|--------0--3--2--3--|
D|-----0--------------|
A|--------------------|
E|--3-----------------| ...play 8 times


E|--------------------------------------|
B|-----------3--1~~------------3--1--3--|
G|--------1-----------------1-----------|
D|-----1-----------------1--------------|
A|--------------------------------------|
E|--4-----------------4-----------------| ...play 2 times


E|--------------------|
B|--------------------|
G|--------0--3--2--3--|
D|-----0--------------|
A|--------------------|
E|--3-----------------| ...play 4 times


E|--------------------------------------
B|--------------------------------------
G|-----------3--1~~------------3--1--3--
D|--------3-----------------3-----------
A|-----3-----------------3--------------
E|--1-----------------1-----------------


E|--------------------------------------|
B|-----------------------------------1--|
G|-----------3--1~~------------0--1-----|
D|--------3-----------------3-----------|
A|-----3-----------------3--------------|
E|--1-----------------1-----------------|


E|--------------------|
B|--------------------|
G|--------0--3--2--3--|
D|-----0--------------|
A|--------------------|
E|--3-----------------| ...play 4 times


That's all I've got for now. The very next chord is a D# minor, but I haven't
figured out the exact notes. 

-->BigBadW4lf

Comments, suggestions, corrections, gripes, and continuations are very welcome.
VGJam Tabs Chrono Cross - "Dragon's Prayer"
Tabs database last modified Tuesday, 01-Nov-2016 19:14:53 UTC.
Copyright © 1999 - 2016 VideoGameJam.com. All rights reserved.