VGJam Tabs Chrono Cross
Chrono Cross
"Radical Dreamers ~ Unstealable Jewel" - Guitar tab
Platform(s):PlayStation
Composed by:Yasunori Mitsuda
Soundtrack:Chrono Cross Original Soundtrack (track D3-15)
Tabbed by:Paul Hasas
Last modified:2000-12-16
Print it:Original file (.TXT)
Hear it:MIDI file
Composer: Yasunori Mitsuda
Title: Radical Dreamers ~Unstolen Jewel~
Game: Chrono Cross

Transcribed by: Walf
Email: BigBadW4lf@netzero.net


Commentary:
This whole song was transcribed from a MIDI (with a little help from
the actual song), so it may be a bit off. The tab is pretty lengthy,
even with the repeats written in (pay close attention to the repeats,
by the way. If you don't know what repeats are and how they work,
you're screwed :p). I think there may be another guitar mixed in with
the main one, but I'm not sure. Some of the parts are almost
impossible to play (maybe Mitsuda found a really good guitar player).
I doubt Mitsuda planned every single note out. The guitarist
must've improvised a little here and there. If you're a rabid Mitsuda
fan and/or guitar player and think you're 1337 enough to memorize
this whole thing, then go for it. I myself can only go a few bars
before I have to look at the tab. :-/

I had to adjust the bridge of the song because there was a contrast
between the MIDI and the actual song, and the stuff in the MIDI was
too hard to play anyway...

Good luck!


Guitar: steel-string acoustic

Use your fingers to pick...

h = hammer-on
p = pull-off
/ = slide up
\ = slide down
() = I'm too tone-deaf to recognize whether the notes are
there or not.


*Intro*
e ||--------------------------|--------------------------|
b ||-----------------0--------|-----------------0--------|
G ||-----------2-----------2--|-----------2-----------2--|
D ||--------0-----------0-----|--------2-----------2-----|
A ||--------------------------|--0-----------0-----------|
E ||--3-----------3-----------|--------------------------|


|-----------2--------------|-----------2--------------|
|-----------------3--------|-----2-----------2--------|
|-----------------------4--|--------------------2-----|
|--------4-----------4-----|-----------------------4--|
|--2-----------------------|--0-----0-----0-----------|
|--------------------------|--------------------------|


|--------------------------|--------------------------|
|-----------------0--------|-----------------0--------|
|-----------2-----------2--|-----------2-----------2--|
|--------0-----------0-----|--------2-----------2-----|
|--------------------------|--0-----------0-----------|
|--3-----------3-----------|--------------------------|


|--------------0-----------|--------------------------|
|-----------0-----0--------|--0-----------------------|
|--------2-----------2-----|--1-----------------------|
|-----2-----------------2--|--2-----------------------|
|--------------------------|--------------------------|
|--0-----------------------|--0-----------------------|


|--------------------------|--------------------------|
|-----------------0--------|-----------------0--------|
|-----------2-----------2--|-----------2-----------2--|
|--------0-----------0-----|--------2-----------2-----|
|--------------------------|--0-----------0-----------|
|--3-----------3-----------|--------------------------|


|-----------2-----2--------|-----------2--------------|
|-----------------3--------|-----2-----2-----2--------|
|-----------4-----------4--|--4-----------------2-----|
|--------4-----------4-----|-----------------------4--|
|--2-----------------------|--0-----0-----0-----------|
|--------------------------|--------------------------|


|--------------------------|--------------------------|
|-----------------0--------|-----------------0--------|
|-----------2-----------2--|-----------2-----------2--|
|--------0-----------0-----|--------2-----------2-----|
|--------------------------|--0-----------0-----------|
|--3-----------3-----------|--------------------------|


|--------------------------|--------------------------||
|-----------------5--------|--4-----------------------||
|-----------4--------4-----|-(4)----------------------||
|--------4--------------4--|-(4)----------------------||
|--2-----------------------|--2-----------------------||
|--------------------------|--------------------------||



*First verse*
||----------------------------|--------------------------|
||-------------------0--------|-----------------0--------|
||-*-----------2-----------2--|-----------2-----------2--|
||----------0-----------0-----|--------2-----------2-----|
||-*--------------------------|--0-----------0-----------|
||----3-----------3-----------|--------------------------|


|-----------2--------------|-----------2--------------|
|-----------------3--------|-----2-----------2--------|
|-----------------------4--|--------------------2-----|
|--------4-----------4-----|-----------------------4--|
|--2-----------------------|--0-----0-----0-----------|
|--------------------------|--------------------------|


|--------------------------|--------------------------|
|-----------------0--------|-----------------0--------|
|-----------2-----------2--|-----------2-----------2--|
|--------0-----------0-----|--------2-----------2-----|
|--------------------------|--0-----------0-----------|
|--3-----------3-----------|--------------------------|

_____________________________________________________
|1. |
|--------------------------|----------------------------||
|-----------------0--------|-----2-----------2----------||
|-----------0-----------0--|-----------4-----------3--*-||
|--------2-----------2-----|--------2-----------2-------||
|--------------------------|--------------------------*-||
|--0-----------------------|--2-----------2-------------||

____________________________________________________
|2.
||-----------2--------------|-----------2--------------||
||-----------------2-----0--|-----------------2--------||
||--------4--4--------4--3--|--------3-----------3-----||
||--------2-----------2-----|-----4-----------------4--||
||--------------------------|--------------------------||
||--2-----------------------|--2-----------------------||



*Second verse*
||----------------------------|--------------------------|
||-------------------0--------|-----------------0--------|
||-*-----------2-----------2--|-----------2-----------2--|
||----------0-----------0-----|--------2-----------2-----|
||-*--------------------------|--0-----------0-----------|
||----3-----------3-----------|--------------------------|


|-----------2--------------|-----------2--------------|
|-----------------3--------|-----2-----------2--------|
|-----------------------4--|--------------------2-----|
|--------4-----------4-----|-----------------------4--|
|--2-----------------------|--0-----0-----0-----------|
|--------------------------|--------------------------|


|--------------------------|--------------------------|
|-----------------0--------|-----------------0--------|
|-----------2-----------2--|-----------2-----------2--|
|--------0-----------0-----|--------2-----------2-----|
|--------------------------|--0-----------0-----------|
|--3-----------3-----------|--------------------------|

_____________________________________________________
|1. |
|--------------------------|----------------------------||
|-----------------0--------|-----2-----------2----------||
|-----------0-----------0--|-----------4-----------3--*-||
|--------2-----------2-----|--------2-----------2-------||
|--------------------------|--------------------------*-||
|--0-----------------------|--2-----------2-------------||

____________________________________________________
|2.
||--------------------------|-----------2--------------||
||-----------------2--------|-----------------2--------||
||-----------4-----------4--|--------3-----------3-----||
||--------2-----------2-----|-----4-----------------4--||
||--------------------------|--------------------------||
||--2-----------------------|--2-----------------------||



*First chorus*
||----------------------------|--------------------------|
||-------------------0--------|-----------------0--------|
||-*-----------2-----------2--|-----------2-----------2--|
||----------0-----------0-----|--------2-----------2-----|
||-*--------------------------|--0-----------0-----------|
||----3-----------3-----------|--------------------------|


|--------------------------|--------------------------|
|-----------------0--------|-----3-----------2--------|
|-----------2-----------2--|-----------4-----------2--|
|--------2-----------2-----|--------4-----------4-----|
|--------------------------|--2-----------0-----------|
|--2-----------2-----------|--------------------------|

_________________________
|1.
|--------------------------|--------------------------|
|-----------------0--------|-----------------0--------|
|-----------2-----------2--|-----------2-----------2--|
|--------0-----------0-----|--------2-----------2-----|
|--------------------------|--0-----------0-----------|
|--3-----------3-----------|--------------------------|

______________________________________________________
|
|-----------------0--------|-----------------0----------||
|-----------------5-----5--|-----------2--------2-------||
|-----------------------7--|--------2-----2--------2--*-||
|-----------7--------7-----|----------------------------||
|--------7-----------------|--0-----------------------*-||
|--7-----------------------|----------------------------||

____________________________________________________
|2.
||--------------------------|--5-~~--------------------|
||-----------------------5--|--------------------------|
||-----------2--------7-----|--------------------------|
||--------2--------7--------|--------------------------|
||--0-----------------------|--------------------------|
||--------------------------|--------------------------|

__________________________

|--------------------------||
|--------------------------||
|--------------------------||
|---------(rest)-----------||
|--------------------------||
|--------------------------||


*Guitar break*
||----------------------------|--------------------------|
||-------------------0--------|-----------------0--------|
||-*-----------2-----------2--|-----------2-----------2--|
||----------0-----------0-----|--------2-----------2-----|
||-*--------------------------|--0-----------0-----------|
||----3-----------3-----------|--------------------------|


|-----------2--------------|-----------2--------------|
|-----------------3--------|-----2-----------2--------|
|-----------------------4--|--------------------2-----|
|--------4-----------4-----|-----------------------4--|
|--2-----------------------|--0-----0-----0-----------|
|--------------------------|--------------------------|


|--------------------------|--------------------------|
|-----------------0--------|-----------------0--------|
|-----------2-----------2--|-----------2-----------2--|
|--------0-----------0-----|--------2-----------2-----|
|--------------------------|--0-----------0-----------|
|--3-----------3-----------|--------------------------|

_____________________________________________________
|1. |
|--------------0-----------|----------------------------||
|-----------0-----0--------|--0-------------------------||
|--------2-----------2-----|--1-----------------------*-||
|-----2-----------------2--|--2-------------------------||
|--------------------------|--------------------------*-||
|--0-----------------------|--0----------0-----2--------||

____________________________________________________
|2.
||--------------------------|--------------------------||
||-----------5-----------5--|--4-----------------------||
||--------4-----------4-----|--4-----------------------||
||-----4-----------4--------|--4-----------------------||
||--2-----------------------|--2-----------------------||
||--------------------------|--------------------------||



*Third verse*
||----------------------------|--------------------------|
||-------------------0--------|-----------------0--------|
||-*-----------2-----------2--|-----------2-----------2--|
||----------0-----------0-----|--------2-----------2-----|
||-*--------------------------|--0-----------0-----------|
||----3-----------3-----------|--------------------------|


|-----------2--------------|-----------2--------------|
|-----------------3--------|-----2-----------2--------|
|-----------------------4--|--------------------2-----|
|--------4-----------4-----|-----------------------4--|
|--2-----------------------|--0-----0-----0-----------|
|--------------------------|--------------------------|


|--------------------------|--------------------------|
|-----------------0--------|-----------------0--------|
|-----------2-----------2--|-----------2-----------2--|
|--------0-----------0-----|--------2-----------2-----|
|--------------------------|--0-----------0-----------|
|--3-----------3-----------|--------------------------|

_____________________________________________________
|1. |
|--------------------------|----------------------------||
|-----------------0--------|-----2-----------2----------||
|-----------0-----------0--|-----------4-----------3--*-||
|--------2-----------2-----|--------2-----------2-------||
|--------------------------|--------------------------*-||
|--0-----------------------|--2-----------2-------------||

____________________________________________________
|2.
||--------------2-----------|-----------2--2-----------||
||-----------2-----2--------|-----------2-----2--------||
||--------4--4--------4--4--|--------3-----------3-----||
||-----2--2-----------2--2--|-----4-----------------4--||
||--------------------------|--------------------------||
||--2-----------------------|--2-----------------------||



*Second chorus*
||----------------------------|--------------------------|
||-------------------0--------|-----------------0--------|
||-*-----------2-----------2--|-----------2-----------2--|
||----------0-----------0-----|--------2-----------2-----|
||-*--------------------------|--0-----------0-----------|
||----3-----------3-----------|--------------------------|


|--------------------------|--------------------------|
|-----------------0--------|-----3-----------2--------|
|-----------2-----------2--|-----------4-----------2--|
|--------2-----------2-----|--------4-----------4-----|
|--------------------------|--2-----------0-----------|
|--2-----------2-----------|--------------------------|


|--------------------------|--------------------------|
|-----------------0--------|-----------------0--------|
|-----------2-----------2--|-----------2-----------2--|
|--------0-----------0-----|--------2-----------2-----|
|--------------------------|--0-----------0-----------|
|--3-----------3-----------|--------------------------|

___________________________________________________
|1. |
|-----------2--------------|-----------2----------------||
|--------3-----5-p3--3--2--|-----2--2-----5--2--2-------||
|-----2-----2-----------2--|-----2-----2--------2--2--*-||
|--------4-----------4-----|-----------------------4----||
|--2-----------------------|--0-----0-----0-----------*-||
|--------------------------|----------------------------||

____________________________________________________
|2.
||--------------0-----------|--------------------------||
||-----------0-----0--------|--0-----------------------||
||--------2-----------2-----|--1-----------------------||
||-----2-----------------2--|--2-----------------------||
||--------------------------|--------------------------||
||--0-----------------------|--0-----------------------||



*Bridge -- guitar intro*
||-----------2--2-----------|-----------2--------------|
||-----------3-----3--------|-----------------3--------|
||--------4-----------4-----|--------0--------------0--|
||-----4-----------------4--|-----4--------------4-----|
||--2-----------------------|--------------------------|
||--------------------------|--3-----------3-----------|


|-----------2--------------|--------------------------|
|--------3--3-----3--------|-----------3-----2--------|
|-----2--------------2-----|--------2-----------2-----|
|--0-----------0--------0--|-----2-----------------2--|
|--------------------------|--0-----------0-----------|
|--------------------------|--------------------------|


|-----------2--------------|-----------2--------------|
|-----------3-----3--------|-----------3-----3--------|
|--------4-----------4-----|--------0-----------0-----|
|-----4-----------------4--|-----4-----------------4--|
|--2-----------2-----------|--------------------------|
|--------------------------|--3-----------3-----------|


|-----------------0--------|-----------------0--------||
|--------3-p0-----------3--|-----0-h2-----------2-----||
|-----2--------------2-----|-----------2-----------2--||
|--------------------------|--------------------------||
|--0-----------0-----------|--0-----------0-----------||
|--------------------------|--------------------------||



*Bridge -- vocals come in*
||-----------2--------------|-----------2--------------|
||-----------3-----3--------|-----------3-----3--------|
||--------4-----------4-----|--------0-----------0-----|
||-----4-----------------4--|-----4-----------------4--|
||--2-----------2-----------|--------------------------|
||--------------------------|--3-----------3-----------|


|-----------2--------------|--------------------------|
|--------3--------3--------|-----------3-----2--------|
|-----2--------------2-----|--------2-----------2-----|
|--0-----------0--------0--|-----2-----------------2--|
|--------------------------|--0-----------0-----------|
|--------------------------|--------------------------|


|-----------2--------------|-----------2--------------|
|-----------3-----3--------|-----------3-----3--------|
|--------4-----------4-----|--------0-----------0-----|
|-----4-----------------4--|-----4-----------------4--|
|--2-----------2-----------|--------------------------|
|--------------------------|--3-----------3-----------|


|-----------------0--------|-----------------0--------|
|--------3-p0-----------3--|-----0-h2-----------2-----|
|-----2--------------2-----|-----------2-----------2--|
|--------------------------|--------------------------|
|--0-----------0-----------|--0-----------0-----------|
|--------------------------|--------------------------|



||-------------2--------------|-----------2--------------|
||-------------3-----3--------|-----------3-----3--------|
||-*--------4-----------4-----|--------0-----------0-----|
||-------4-----------------4--|-----4-----------------4--|
||-*--2-----------2-----------|--------------------------|
||----------------------------|--3-----------3-----------|


|-----------2--------------|--------------------------|
|--------3--------3--------|-----------3-----2--------|
|-----2--------------2-----|--------2-----------2-----|
|--0-----------0--------0--|-----2-----------------2--|
|--------------------------|--0-----------0-----------|
|--------------------------|--------------------------|


|-----------2--------------|-----------2--------------|
|-----------3-----3--------|-----------3-----3--------|
|--------4-----------4-----|--------0-----------0-----|
|-----4-----------------4--|-----4-----------------4--|
|--2-----------2-----------|--------------------------|
|--------------------------|--3-----------3-----------|


|--------------0--0--------|--------------0--0----------||
|--------3-p0--------3--3--|-----0-h2-----------2-------||
|-----2--------------2--2--|-----2-----2-----------2--*-||
|--------------------------|----------------------------||
|--0-----------0-----------|--0-----------0-----------*-||
|--------------------------|----------------------------||



*Outro*
|--------------------------|--------------------------|
|-----------------0--------|-----------------0--------|
|-----------2-----------2--|-----------2-----------2--|
|--------0-----------0-----|--------2-----------2-----|
|--------------------------|--0-----------0-----------|
|--3-----------3-----------|--------------------------|


|-----------2--------------|-----------2--------------|
|-----------------3--------|-----2-----------2--------|
|-----------------------4--|--------------------2-----|
|--------4-----------4-----|-----------------------4--|
|--2-----------------------|--0-----0-----0-----------|
|--------------------------|--------------------------|


|--------------------------|--------------------------|
|-----------------0--------|-----------------0--------|
|-----------2-----------2--|-----------2-----------2--|
|--------0-----------0-----|--------2-----------2-----|
|--------------------------|--0-----------0-----------|
|--3-----------3-----------|--------------------------|


|-----------------2--------|--0-----------0-----------|
|--------3--3--5-----3-----|-----2-h3--0-----2-h3--0--|
|-----2-----------------4--|-----------2-----------2--|
|--------4-----------------|--------------------------|
|--2-----------------------|--------------------------|
|--------------------------|--------------------------|


|--------------------------|--------------------------|
|-----------------0--------|-----------------0--------|
|-----------2-----------2--|-----------2-----------2--|
|--------0-----------0-----|--------2-----------2-----|
|--------------------------|--0-----------0-----------|
|--3-----------3-----------|--------------------------|


* Slow down... *
|-----------2--------------|-----------2--------------|
|-----------------3--------|-----2-----------2--------|
|-----------------------4--|--------------------2-----|
|--------4-----------4-----|-----------------------4--|
|--2-----------------------|--0-----0-----0-----------|
|--------------------------|--------------------------|


* Slow to a crawl... *
|--------------------------|--------------0-----------|
|-----------------0--------|-----------0-----0--------|
|-----------2-----------2--|--------2-----------2-----|
|--------0-----------0-----|-----2-----------------2--|
|--------------------------|--0-----------------------|
|--3-----------3-----------|--------------------------|


|------0-------------------|--------------------------||
|-----4/5\4-~~-------------|--------------------------||
|----4---------------------|--------------------------||
|---4----------------------|--------------------------||
|--2-----------------------|--------------------------||
|--------------------------|--------------------------||


!!! THE END !!!


* Whew *

Cripes. Six hours in front of a computer, but I did it.

Comments, gripes, suggestions, and corrections are very welcome.

--> BigBadW4lf@netzero.net
VGJam Tabs Chrono Cross - "Radical Dreamers ~ Unstealable Jewel"
Tabs database last modified Tuesday, 01-Nov-2016 19:14:53 UTC.
Copyright © 1999 - 2016 VideoGameJam.com. All rights reserved.