VGJam Tabs Chrono Cross
Chrono Cross
"Radical Dreamers ~ Unstealable Jewel" - Guitar tab
Platform(s):PlayStation
Composed by:Yasunori Mitsuda
Soundtrack:Chrono Cross Original Soundtrack (track D3-15)
Tabbed by:KronosECW
Last modified:2001-01-02
Print it:Original file (.TXT)
Hear it:MIDI file
Guitar 1 - This is the most accurate tab I can find.
Taken from the midi. **Note, the vocals are probably 
unplayable, redo the notes so thats its playable**

E |---------|----------------|----------------|------2--------|
B |---------|----------0-----|----------0-----|---------3---0-|
G |---------|------2-------2-|------2-------2-|---------------|
D |---------|----0-------0---|----2-------2---|----4------4---|
A |---------|----------------|-0------0-------|-2-------------|
E |---------|-3------3-------|----------------|---------------|

|-------2---------|----------------|----------------|---------0-------|
|---2-------2-----|----------0-----|----------0-----|-------0---------|
|-------------2---|------2-------2-|------2-------2-|-----2-----4-2---|
|---------------4-|----0-------0---|----2-------2---|---2-----------2-|
|-0---0---0-------|----------------|-0------0-------|-----------------|
|-----------------|-3------3-------|----------------|-0---------------|

|------------------------------------|----------------|----------------|
|-----0------------------------------|----------0-----|----------0-----|
|---1--------------------------------|------2-------2-|------2-------2-|
|---2--------------------------------|----0-------0---|----2-------2---|
|------------------------------------|----------------|-0------0-------|
|-0----------------------------------|-3------3-------|----------------|

|------2--------|-------2---------|----------------|----------------|
|---------3---0-|---2-------2-----|----------0-----|----------0-----|
|---------------|-------------2---|------2-------2-|------2-------2-|
|----4------4---|---------------4-|----0-------0---|----2-------2---|
|-2-------------|-0---0---0-------|----------------|-0------0-------|
|---------------|-----------------|-3------3-------|----------------|

|---------------|----------|----------------|----------------|------2--------|
|------0--5-0---|-4--------|----------0-----|----------0-----|---------3---0-|
|---------------|----------|------2-------2-|------2-------2-|---------------|
|----4--------4-|----------|----0-------0---|----2-------2---|----4------4---|
|-2-------------|----------|----------------|-0------0-------|-2-------------|
|---------------|----------|-3------3-------|----------------|---------------|

|-------2---------|----------------|----------------|---------------|
|---2-------2-----|----------0-----|----------0-----|---------0-----|
|-------------2---|------2-------2-|------2-------2-|------0------0-|
|---------------4-|----0-------0---|----2-------2---|----2------2---|
|-0---0---0-------|----------------|-0------0-------|---------------|
|-----------------|-3------3-------|----------------|-0-------------|

|-----------------|----------------|----------------|------2--------|
|---2---0---2-----|----------0-----|----------0-----|---------3---0-|
|---------------3-|------2-------2-|------2-------2-|---------------|
|-----2-------4---|----0-------0---|----2-------2---|----4------4---|
|-----------------|----------------|-0------0-------|-2-------------|
|-2-------2-------|-3------3-------|----------------|---------------|

|-------2---------|----------------|----------------|---------------|
|---2-------2-----|----------0-----|----------0-----|------0--2---0-|
|-------------2---|------2-------2-|------2-------2-|---------------|
|---------------4-|----0-------0---|----2-------2---|----2------2---|
|-0---0---0-------|----------------|-0------0-------|---------------|
|-----------------|-3------3-------|----------------|-2-------------|

|-------2--------|----------------|----------------|------2--------|
|----------2-----|----------0-----|----------0-----|---------3---0-|
|-----3------3---|------2-------2-|------2-------2-|---------------|
|---4----------4-|----0-------0---|----2-------2---|----4------4---|
|----------------|----------------|-0------0-------|-2-------------|
|-2--------------|-3------3-------|----------------|---------------|

|-------2---------|----------------|----------------|---------------|
|---2-------2-----|----------0-----|----------0-----|---------0-----|
|-------------2---|------2-------2-|------2-------2-|------0------0-|
|---------------4-|----0-------0---|----2-------2---|----2------2---|
|-0---0---0-------|----------------|-0------0-------|---------------|
|-----------------|-3------3-------|----------------|-0-------------|

|-----------------|----------------|----------------|------2--------|
|---2---0---2-----|----------0-----|----------0-----|---------3---0-|
|---------------3-|------2-------2-|------2-------2-|---------------|
|-----2-------4---|----0-------0---|----2-------2---|----4------4---|
|-----------------|----------------|-0------0-------|-2-------------|
|-2-------2-------|-3------3-------|----------------|---------------|

|-------2---------|----------------|----------------|---------------|
|---2-------2-----|----------0-----|----------0-----|------0--2---0-|
|-------------2---|------2-------2-|------2-------2-|---------------|
|---------------4-|----0-------0---|----2-------2---|----2------2---|
|-0---0---0-------|----------------|-0------0-------|---------------|
|-----------------|-3------3-------|----------------|-2-------------|

|-------2--------|----------------|----------------|----------------|
|----------2-----|----------0-----|----------0-----|----------0-----|
|-----3------3---|------2-------2-|------2-------2-|------2-------2-|
|---4----------4-|----0-------0---|----2-------2---|----2-------2---|
|----------------|----------------|-0------0-------|----------------|
|-2--------------|-3------3-------|----------------|-2------2-------|

|-----------------|----------------|----------------|---------0-----|
|---3---0---2-----|----------0-----|----------0-----|------3------3-|
|---------------2-|------2-------2-|------2-------2-|----2------2---|
|-----4-------4---|----0-------0---|----2-------2---|---------------|
|-2-------0-------|----------------|-0------0-------|-2-------------|
|-----------------|-3------3-------|----------------|---------------|

|---------------|----------------|----------------|----------------|
|------2--5-2---|----------0-----|----------0-----|----------0-----|
|----2--------2-|------2-------2-|------2-------2-|------2-------2-|
|---------------|----0-------0---|----2-------2---|----2-------2---|
|-0-------------|----------------|-0------0-------|----------------|
|---------------|-3------3-------|----------------|-2------2-------|

|-----------------|----------------|-------------0-|-5--------|---------|
|---3---0---2-----|----------0-----|-----------3---|----------|---------|
|---------------2-|------2-------2-|------2--2-----|----------|---------|
|-----4-------4---|----0-------0---|----2----------|----------|---------|
|-2-------0-------|----------------|-0-------------|----------|---------|
|-----------------|-3------3-------|---------------|----------|---------|

|----------------|----------------|------2--------|-------2---------|
|----------0-----|----------0-----|---------3---0-|---2-------2-----|
|------2-------2-|------2-------2-|---------------|-------------2---|
|----0-------0---|----2-------2---|----4------4---|---------------4-|
|----------------|-0------0-------|-2-------------|-0---0---0-------|
|-3------3-------|----------------|---------------|-----------------|

|----------------|----------------|---------0-------|
|----------0-----|----------0-----|-------0---------|
|------2-------2-|------2-------2-|-----2-----4-2---|
|----0-------0---|----2-------2---|---2-----------2-|
|----------------|-0------0-------|-----------------|
|-3------3-------|----------------|-0---------------|

|--------------------------------------|----------------|----------------|
|-----0--------------------------------|----------0-----|----------0-----|
|---1----------------------------------|------2-------2-|------2-------2-|
|---2----------------------------------|----0-------0---|----2-------2---|
|--------------------------------------|----------------|-0------0-------|
|-0------------------0--------2--------|-3------3-------|----------------|

|------2--------|-------2---------|----------------|----------------|
|---------3---0-|---2-------2-----|----------0-----|----------0-----|
|---------------|-------------2---|------2-------2-|------2-------2-|
|----4------4---|---------------4-|----0-------0---|----2-------2---|
|-2-------------|-0---0---0-------|----------------|-0------0-------|
|---------------|-----------------|-3------3-------|----------------|

|-------0------0-|------------------------------------|----------------|
|-----0------0---|---0-4------------------------------|----------0-----|
|----------------|------------------------------------|------2-------2-|
|---4------4-----|---4--------------------------------|----0-------0---|
|-2--------------|-2----------------------------------|----------------|
|----------------|------------------------------------|-3------3-------|

|----------------|------2--------|-------2---------|----------------|
|----------0-----|---------3---0-|---2-------2-----|----------0-----|
|------2-------2-|---------------|-------------2---|------2-------2-|
|----2-------2---|----4------4---|---------------4-|----0-------0---|
|-0------0-------|-2-------------|-0---0---0-------|----------------|
|----------------|---------------|-----------------|-3------3-------|

|----------------|---------------|-----------------|----------------|
|----------0-----|---------0-----|---2---0---2-----|----------0-----|
|------2-------2-|------0------0-|---------------3-|------2-------2-|
|----2-------2---|----2------2---|-----2-------4---|----0-------0---|
|-0------0-------|---------------|-----------------|----------------|
|----------------|-0-------------|-2-------2-------|-3------3-------|

|----------------|------2--------|-------2---------|----------------|
|----------0-----|---------3---0-|---2-------2-----|----------0-----|
|------2-------2-|---------------|-------------2---|------2-------2-|
|----2-------2---|----4------4---|---------------4-|----0-------0---|
|-0------0-------|-2-------------|-0---0---0-------|----------------|
|----------------|---------------|-----------------|-3------3-------|

|----------------|---------------|-------2--------|-2--------------|
|----------0-----|------0--2---0-|----------2-----|----------0-----|
|------2-------2-|---------------|-----3------3---|------2-------2-|
|----2-------2---|----2------2---|---4----------4-|------------0---|
|-0------0-------|---------------|----------------|----5-----------|
|----------------|-2-------------|-2--------------|-3------3-------|

|----------------|----------------|-----------------|----------------|
|----------0-----|----------0-----|---3---0---2-----|----------0-----|
|------2-------2-|------2-------2-|---------------2-|------2-------2-|
|----2-------2---|----2-------2---|-----4-------4---|----0-------0---|
|-0------0-------|----------------|-2-------0-------|----------------|
|----------------|-2------2-------|-----------------|-3------3-------|

|----------------|---------------|---------------|----------------|
|----------0-----|----3---5--3---|----2---5--2---|----------0-----|
|------2-------2-|--2---2------2-|--2---2------2-|------2-------2-|
|----2-------2---|---------------|---------------|----0-------0---|
|-0------0-------|---------------|---------------|----------------|
|----------------|---------------|---------------|-3------3-------|

|----------------|----------------|-----------------|----------------|
|----------0-----|----------0-----|---3---0---2-----|----------0-----|
|------2-------2-|------2-------2-|---------------2-|------2-------2-|
|----2-------2---|----2-------2---|-----4-------4---|----0-------0---|
|-0------0-------|----------------|-2-------0-------|----------------|
|----------------|-2------2-------|-----------------|-3------3-------|

|----------------|---------0-------|------------------------------------|
|----------0-----|-------0---------|-----0------------------------------|
|------2-------2-|-----2-----4-2---|---1--------------------------------|
|----2-------2---|---2-----------2-|---2--------------------------------|
|-0------0-------|-----------------|------------------------------------|
|----------------|-0---------------|-0----------------------------------|

|-------2---------|-------2---------|-------2---------|-----------------|
|-----0-----3-0---|-----------3-----|-----3-----3-----|-------3---2-----|
|-----------------|-----0-----------|---2---------2---|-----2-------2---|
|---4-----------4-|---4---------4-5-|-0-------0-------|---2-----------2-|
|-2-------2-------|-----------------|---------------5-|-0-------0-------|
|-----------------|-3-------3-------|-----------------|-----------------|

|-------2---------|-------2---------|-----------0-----|-----------------|
|-----0-----3-0---|-----------3-----|-----3-0-------3-|---0-2-----5-2---|
|-----------------|-----0-----------|---2---------2---|-------2-------2-|
|---4-----------4-|---4---------5-4-|-----------------|-----------------|
|-2-------2-------|-----------------|-0-------0-------|-0-------0-------|
|-----------------|-3-------3-------|-----------------|-----------------|

|-------2---------|-------2---------|-------2---------|-----------------|
|-----0-----3-0---|-----------3-----|-----3-----3-----|-------3---2-----|
|-----------------|-----0-----------|---2---------2---|-----2-------2---|
|---4-----------4-|---4---------4-5-|-0-------0-------|---2-----------2-|
|-2-------2-------|-----------------|---------------5-|-0-------0-------|
|-----------------|-3-------3-------|-----------------|-----------------|

|-------2---------|-------2---------|-----------0-----|-----------------|
|-----0-----3-0---|-----------3-----|-----3-0-------3-|---0-2-----5-2---|
|-----------------|-----0-----------|---2---------2---|-------2-------2-|
|---4-----------4-|---4---------5-4-|-----------------|-----------------|
|-2-------2-------|-----------------|-0-------0-------|-0-------0-------|
|-----------------|-3-------3-------|-----------------|-----------------|

|-------2---------|-------2---------|-------2---------|-----------------|
|-----0-----3-0---|-----------3-----|-----3-----3-----|-------3---2-----|
|-----------------|-----0-----------|---2---------2---|-----2-------2---|
|---4-----------4-|---4---------4-5-|-0-------0-------|---2-----------2-|
|-2-------2-------|-----------------|---------------5-|-0-------0-------|
|-----------------|-3-------3-------|-----------------|-----------------|

|-------2---------|-------2---------|-----------0-----|-----------------|
|-----0-----3-0---|-----------3-----|-----3-0-------3-|---0-2-----5-2---|
|-----------------|-----0-----------|---2---------2---|-------2-------2-|
|---4-----------4-|---4---------5-4-|-----------------|-----------------|
|-2-------2-------|-----------------|-0-------0-------|-0-------0-------|
|-----------------|-3-------3-------|-----------------|-----------------|

|-------2---------|-------2---------|-------2---------|-----------------|
|-----0-----3-0---|-----------3-----|-----3-----3-----|-------3---2-----|
|-----------------|-----0-----------|---2---------2---|-----2-------2---|
|---4-----------4-|---4---------4-5-|-0-------0-------|---2-----------2-|
|-2-------2-------|-----------------|---------------5-|-0-------0-------|
|-----------------|-3-------3-------|-----------------|-----------------|

|-------2---------|-------2---------|-----------0-----|-----------------|
|-----0-----3-0---|-----------3-----|-----3-0-------3-|---0-2-----5-2---|
|-----------------|-----0-----------|---2---------2---|-------2-------2-|
|---4-----------4-|---4---------5-4-|-----------------|-----------------|
|-2-------2-------|-----------------|-0-------0-------|-0-------0-------|
|-----------------|-3-------3-------|-----------------|-----------------|

|----------------|----------------|------2--------|-------2---------|
|----------0-----|----------0-----|---------3---0-|---2-------2-----|
|------2-------2-|------2-------2-|---------------|-------------2---|
|----0-------0---|----2-------2---|----4------4---|---------------4-|
|----------------|-0------0-------|-2-------------|-0---0---0-------|
|-3------3-------|----------------|---------------|-----------------|

|----------------|----------------|---------2----|-------------|
|----------0-----|----------0-----|------3-----0-|--2--0--2--0-|
|------2-------2-|------2-------2-|--------------|-------------|
|----0-------0---|----2-------2---|----4---------|-------------|
|----------------|-0------0-------|-2------------|-------------|
|-3------3-------|----------------|--------------|-------------|

|----------------|----------------|------2--------|-------2---------|
|----------0-----|----------0-----|---------3---0-|---2-------2-----|
|------2-------2-|------2-------2-|---------------|-------------2---|
|----0-------0---|----2-------2---|----4------4---|---------------4-|
|----------------|-0------0-------|-2-------------|-0---0---0-------|
|-3------3-------|----------------|---------------|-----------------|

|----------------|---------0-------|-----0-------------------------------|
|----------0-----|-------0---------|---0---4-----------------------------|
|------2-------2-|-----2-----4-2---|-------------------------------------|
|----0-------0---|---2-----------2-|---4---------------------------------|
|----------------|-0---------------|-2-----------------------------------|
|-3------3-------|-----------------|-------------------------------------|

|---------|
|---------|
|---------|
|---------|
|---------|
|---------|

Guitar 2 (follows bar 1 bar for bar)
E |---------|---------|---------|---------|---------|---------|---------|
B |---------|---------|---------|---------|---------|---------|---------|
G |---------|---------|---------|---------|---------|---------|---------|
D |---------|---------|---------|---------|---------|---------|---------|
A |---------|---------|---------|---------|---------|---------|---------|
E |---------|---------|---------|---------|---------|---------|---------|

|---------|---------|------------|------------|--------2---|-----------|
|---------|---------|--------0---|--------0---|-----0------|-0---2-----|
|---------|---------|-----2------|-----2------|------------|-----------|
|---------|---------|---0--------|---2--------|---4--------|-----------|
|---------|---------|------------|------------|------------|-----------|
|---------|---------|------------|------------|------------|-----------|

|---------|---------|---------|---------|---------|---------|---------|
|---------|---------|---------|---------|---------|---------|---------|
|---------|---------|---------|---------|---------|---------|---------|
|---------|---------|---------|---------|---------|---------|---------|
|---------|---------|---------|---------|---------|---------|---------|
|---------|---------|---------|---------|---------|---------|---------|

|---------|---------|---------|---------|---------|---------|---------|
|---------|---------|---------|---------|---------|---------|---------|
|---------|---------|---------|---------|---------|---------|---------|
|---------|---------|---------|---------|---------|---------|---------|
|---------|---------|---------|---------|---------|---------|---------|
|---------|---------|---------|---------|---------|---------|---------|

|---------|---------|---------|---------|-----2-------|---------|---------|
|---------|---------|---------|---------|---0---------|---------|---------|
|---------|---------|---------|---------|---------4-3-|---------|---------|
|---------|---------|---------|---------|-------------|---------|---------|
|---------|---------|---------|---------|-------------|---------|---------|
|---------|---------|---------|---------|-------------|---------|---------|

|---------|---------|---------|---------|---------|---------|---------|
|---------|---------|---------|---------|---------|---------|---------|
|---------|---------|---------|---------|---------|---------|---------|
|---------|---------|---------|---------|---------|---------|---------|
|---------|---------|---------|---------|---------|---------|---------|
|---------|---------|---------|---------|---------|---------|---------|

|---------|---------|---------|---------|---------|---------|---------|
|---------|---------|---------|---------|---------|---------|---------|
|---------|---------|---------|---------|---------|---------|---------|
|---------|---------|---------|---------|---------|---------|---------|
|---------|---------|---------|---------|---------|---------|---------|
|---------|---------|---------|---------|---------|---------|---------|

|---------|---------|---------|---------|---------|---------|---------|
|---------|---------|---------|---------|---------|---------|---------|
|---------|---------|---------|---------|---------|---------|---------|
|---------|---------|---------|---------|---------|---------|---------|
|---------|---------|---------|---------|---------|---------|---------|
|---------|---------|---------|---------|---------|---------|---------|

|------0--0-|----------|---------|---------|---------|---------|---------|
|-----------|----------|---------|---------|---------|---------|---------|
|-----------|-----2----|---------|---------|---------|---------|---------|
|-----------|----------|---------|---------|---------|---------|---------|
|-----------|----------|---------|---------|---------|---------|---------|
|-----------|----------|---------|---------|---------|---------|---------|

|---------|---------|---------|---------|---------|---------|---------|
|---------|---------|---------|---------|---------|---------|---------|
|---------|---------|---------|---------|---------|---------|---------|
|---------|---------|---------|---------|---------|---------|---------|
|---------|---------|---------|---------|---------|---------|---------|
|---------|---------|---------|---------|---------|---------|---------|

|---------|---------|---------|---------|---------|---------|---------|
|---------|---------|---------|---------|---------|---------|---------|
|---------|---------|---------|---------|---------|---------|---------|
|---------|---------|---------|---------|---------|---------|---------|
|---------|---------|---------|---------|---------|---------|---------|
|---------|---------|---------|---------|---------|---------|---------|

|---------|---------|---------|---------|---------|---------|---------|
|---------|---------|---------|---------|---------|---------|---------|
|---------|---------|---------|---------|---------|---------|---------|
|---------|---------|---------|---------|---------|---------|---------|
|---------|---------|---------|---------|---------|---------|---------|
|---------|---------|---------|---------|---------|---------|---------|

|---------|---------|---------|---------|---------|---------|---------|
|---------|---------|---------|---------|---------|---------|---------|
|---------|---------|---------|---------|---------|---------|---------|
|---------|---------|---------|---------|---------|---------|---------|
|---------|---------|---------|---------|---------|---------|---------|
|---------|---------|---------|---------|---------|---------|---------|

|---------|---------|---------|---------|---------|--------2-------|
|---------|---------|---------|---------|---------|----0-2---2-0---|
|---------|---------|---------|---------|---------|----------------|
|---------|---------|---------|---------|---------|--2-----------2-|
|---------|---------|---------|---------|---------|----------------|
|---------|---------|---------|---------|---------|----------------|

|--------2-------|---------|---------|---------|---------|---------|---------|
|------2---2-----|---------|---------|---------|---------|---------|---------|
|----3-------3---|---------|---------|---------|---------|---------|---------|
|--4-----------4-|---------|---------|---------|---------|---------|---------|
|----------------|---------|---------|---------|---------|---------|---------|
|----------------|---------|---------|---------|---------|---------|---------|

|------2--------|-------2---------|---------|---------|---------|---------|
|---------3---0-|---2-------2-----|---------|---------|---------|---------|
|---------------|-------------2---|---------|---------|---------|---------|
|----4------4---|---------------4-|---------|---------|---------|---------|
|-2-------------|-0---0---0-------|---------|---------|---------|---------|
|---------------|-----------------|---------|---------|---------|---------|

|---------|---------|---------|---------|--------2-------|---------|---------|
|---------|---------|---------|---------|------3---3-----|---------|---------|
|---------|---------|---------|---------|----------------|---------|---------|
|---------|---------|---------|---------|----4-------4---|---------|---------|
|---------|---------|---------|---------|--2-----------2-|---------|---------|
|---------|---------|---------|---------|----------------|---------|---------|

|---------|---------|---------|---------|---------|---------|---------|
|---------|---------|---------|---------|---------|---------|---------|
|---------|---------|---------|---------|---------|---------|---------|
|---------|---------|---------|---------|---------|---------|---------|
|---------|---------|---------|---------|---------|---------|---------|
|---------|---------|---------|---------|---------|---------|---------|

|---------|---------|---------|---------|---------|---------|---------|
|---------|---------|---------|---------|---------|---------|---------|
|---------|---------|---------|---------|---------|---------|---------|
|---------|---------|---------|---------|---------|---------|---------|
|---------|---------|---------|---------|---------|---------|---------|
|---------|---------|---------|---------|---------|---------|---------|

|---------|---------|---------|---------|---------|---------------|
|---------|---------|---------|---------|---------|----3-0-5--3---|
|---------|---------|---------|---------|---------|--2----------2-|
|---------|---------|---------|---------|---------|---------------|
|---------|---------|---------|---------|---------|---------------|
|---------|---------|---------|---------|---------|---------------|

|---------------|---------|---------|---------|---------|---------|---------|
|----2---5--2---|---------|---------|---------|---------|---------|---------|
|--2---2------2-|---------|---------|---------|---------|---------|---------|
|---------------|---------|---------|---------|---------|---------|---------|
|---------------|---------|---------|---------|---------|---------|---------|
|---------------|---------|---------|---------|---------|---------|---------|

|---------------|---------------|---------|---------|---------|---------|
|----3-0-5--3---|----2---5--2---|---------|---------|---------|---------|
|--2----------2-|--2---2------2-|---------|---------|---------|---------|
|---------------|---------------|---------|---------|---------|---------|
|---------------|---------------|---------|---------|---------|---------|
|---------------|---------------|---------|---------|---------|---------|

|---------|---------|---------------|---------------|---------|---------|
|---------|---------|----3-0-5--3---|-5--3---5--3---|---------|---------|
|---------|---------|--2----------2-|------2------2-|---------|---------|
|---------|---------|---------------|---------------|---------|---------|
|---------|---------|---------------|---------------|---------|---------|
|---------|---------|---------------|---------------|---------|---------|

|---------|---------|---------------|---------0-------|
|---------|---------|---------0-----|-------0---------|
|---------|---------|-----2-------2-|-----2-----4-2---|
|---------|---------|---0-------0---|---2-----------2-|
|---------|---------|---------------|-0---------------|
|---------|---------|-------3-------|-----------------|

|------------------------------------|---------|
|---0-4------------------------------|---------|
|------------------------------------|---------|
|---4--------------------------------|---------|
|-2----------------------------------|---------|
|------------------------------------|---------|


Vocals - I'm sure there's a better fingering for this
But since Im ripping the midi of this, its how it was set up.
Im sure you only care about the guitar parts anyway.


E |---------|---------|---------|---------|---------|---------|---------|
B |---------|---------|---------|---------|---------|---------|---------|
G |---------|---------|---------|---------|---------|---------|---------|
D |---------|---------|---------|---------|---------|---------|---------|
A |---------|---------|---------|---------|---------|---------|---------|
E |---------|---------|---------|---------|---------|---------|---------|

|---------|---------|---------|---------|---------|---------|---------|
|---------|---------|---------|---------|---------|---------|---------|
|---------|---------|---------|---------|---------|---------|---------|
|---------|---------|---------|---------|---------|---------|---------|
|---------|---------|---------|---------|---------|---------|---------|
|---------|---------|---------|---------|---------|---------|---------|

|---------|---------|---------|----5-14-15--17-|--12--10--9---|-9--7-14-----|
|---------|---------|---------|----------------|--------------|-------------|
|---------|---------|---------|----------------|--------------|-------------|
|---------|---------|---------|----------------|--------------|-------------|
|---------|---------|---------|----------------|--------------|-------------|
|---------|---------|---------|----------------|--------------|-------------|

|---------|----5-14-15--17-|--12--10--9---|-12---7---14--|
|---------|----------------|--------------|--------------|
|---------|----------------|--------------|--------------|
|---------|----------------|--------------|--------------|
|---------|----------------|--------------|--------------|
|---------|----------------|--------------|--------------|

|-------15-14-12--------|----5-14-15--17-|--12--10--9---|-9--7-14-----|
|-----------------------|----------------|--------------|-------------|
|-----------------------|----------------|--------------|-------------|
|-----------------------|----------------|--------------|-------------|
|-----------------------|----------------|--------------|-------------|
|-----------------------|----------------|--------------|-------------|

|-----10-12-14-10-|-----10-12-14-12-|-----12--10-9-|----------------9-|
|-----------------|-----------------|--------------|------------------|
|-----------------|-----------------|--------------|------------------|
|-----------------|-----------------|--------------|------------------|
|-----------------|-----------------|--------------|------------------|
|-----------------|-----------------|--------------|------------------|

|---------|----5-14-15--17-|--12--10--9---|-9--7-14-----|---------|
|---------|----------------|--------------|-------------|---------|
|---------|----------------|--------------|-------------|---------|
|---------|----------------|--------------|-------------|---------|
|---------|----------------|--------------|-------------|---------|
|---------|----------------|--------------|-------------|---------|

|----5-14-15--17-|--19--14-------|-----------14--|-------15-14-12--------|
|----------------|----------17---|-17------------|-----------------------|
|----------------|---------------|------16-------|-----------------------|
|----------------|---------------|---------------|-----------------------|
|----------------|---------------|---------------|-----------------------|
|----------------|---------------|---------------|-----------------------|

|----5-14-15--17-|--12--10--9---|-9--7-14-----|-----10-12-14-10-|
|----------------|--------------|-------------|-----------------|
|----------------|--------------|-------------|-----------------|
|----------------|--------------|-------------|-----------------|
|----------------|--------------|-------------|-----------------|
|----------------|--------------|-------------|-----------------|

|-----10-12-14-12-|-----12--10-9-|----------------9-|---------|-7---14-----|
|-----------------|--------------|------------------|---------|------------|
|-----------------|--------------|------------------|---------|------------|
|-----------------|--------------|------------------|---------|------------|
|-----------------|--------------|------------------|---------|------------|
|-----------------|--------------|------------------|---------|------------|

|-12---17-----|-14---9---9--|-10--9--10----|------14-----|-12---17-----|
|-------------|-------------|--------------|-12----------|-------------|
|-------------|-------------|--------------|-------------|-------------|
|-------------|-------------|--------------|-------------|-------------|
|-------------|-------------|--------------|-------------|-------------|
|-------------|-------------|--------------|-------------|-------------|

|-14---21---19--|---------|-7---14-----|-12---17-----|-14---9---9--|
|---------------|---------|------------|-------------|-------------|
|---------------|---------|------------|-------------|-------------|
|---------------|---------|------------|-------------|-------------|
|---------------|---------|------------|-------------|-------------|
|---------------|---------|------------|-------------|-------------|

|-10--9--10-----9-|-10---10---14-12-|----------------12-|---------|
|------------12---|-----------------|-------------------|---------|
|-----------------|-----------------|-------------------|---------|
|-----------------|-----------------|-------------------|---------|
|-----------------|-----------------|-------------------|---------|
|-----------------|-----------------|-------------------|---------|

|-----10--9-10-|----------------10-|---------|---------|---------|---------|
|--------------|-------------------|---------|---------|---------|---------|
|--------------|-------------------|---------|---------|---------|---------|
|--------------|-------------------|---------|---------|---------|---------|
|--------------|-------------------|---------|---------|---------|---------|
|--------------|-------------------|---------|---------|---------|---------|

|---------|---------|---------|---------|---------|---------|---------|
|---------|---------|---------|---------|---------|---------|---------|
|---------|---------|---------|---------|---------|---------|---------|
|---------|---------|---------|---------|---------|---------|---------|
|---------|---------|---------|---------|---------|---------|---------|
|---------|---------|---------|---------|---------|---------|---------|

|---------|---------|---------|---------|----5-14-15--17-|--12--10--9---|
|---------|---------|---------|---------|----------------|--------------|
|---------|---------|---------|---------|----------------|--------------|
|---------|---------|---------|---------|----------------|--------------|
|---------|---------|---------|---------|----------------|--------------|
|---------|---------|---------|---------|----------------|--------------|

|-9--7-14-----|---------|----5-14-15--17-|--12--10--9---|-12---7---14--|
|-------------|---------|----------------|--------------|--------------|
|-------------|---------|----------------|--------------|--------------|
|-------------|---------|----------------|--------------|--------------|
|-------------|---------|----------------|--------------|--------------|
|-------------|---------|----------------|--------------|--------------|

|-------15-14-12--------|----5-14-15--17-|--12--10--9---|-9--7-14-----|
|-----------------------|----------------|--------------|-------------|
|-----------------------|----------------|--------------|-------------|
|-----------------------|----------------|--------------|-------------|
|-----------------------|----------------|--------------|-------------|
|-----------------------|----------------|--------------|-------------|

|-----10-12-14-10-|-----10-12-14-12-|-----12--10-9-|----------------9-|
|-----------------|-----------------|--------------|------------------|
|-----------------|-----------------|--------------|------------------|
|-----------------|-----------------|--------------|------------------|
|-----------------|-----------------|--------------|------------------|
|-----------------|-----------------|--------------|------------------|

|---------|-7---14-----|-12---17-----|-14---9---9--|-10--9--10----|
|---------|------------|-------------|-------------|--------------|
|---------|------------|-------------|-------------|--------------|
|---------|------------|-------------|-------------|--------------|
|---------|------------|-------------|-------------|--------------|
|---------|------------|-------------|-------------|--------------|

|------14-----|-12---17-----|-14---21---19--|---------|-7---14-----|
|-12----------|-------------|---------------|---------|------------|
|-------------|-------------|---------------|---------|------------|
|-------------|-------------|---------------|---------|------------|
|-------------|-------------|---------------|---------|------------|
|-------------|-------------|---------------|---------|------------|

|-12---17-----|-14---9---9--|-10--9--10----|------14-----|-12---10---9--|
|-------------|-------------|--------------|-12----------|--------------|
|-------------|-------------|--------------|-------------|--------------|
|-------------|-------------|--------------|-------------|--------------|
|-------------|-------------|--------------|-------------|--------------|
|-------------|-------------|--------------|-------------|--------------|

|-7--------|---------|---------|---------|---------|---------|---------|
|----------|---------|---------|---------|---------|---------|---------|
|----------|---------|---------|---------|---------|---------|---------|
|----------|---------|---------|---------|---------|---------|---------|
|----------|---------|---------|---------|---------|---------|---------|
|----------|---------|---------|---------|---------|---------|---------|

|---------|---------|---------|---------|---------|---------|---------|
|---------|---------|---------|---------|---------|---------|---------|
|---------|---------|---------|---------|---------|---------|---------|
|---------|---------|---------|---------|---------|---------|---------|
|---------|---------|---------|---------|---------|---------|---------|
|---------|---------|---------|---------|---------|---------|---------|

|---------|---------|---------|---------|---------|---------|---------|
|---------|---------|---------|---------|---------|---------|---------|
|---------|---------|---------|---------|---------|---------|---------|
|---------|---------|---------|---------|---------|---------|---------|
|---------|---------|---------|---------|---------|---------|---------|
|---------|---------|---------|---------|---------|---------|---------|

|---------|---------|---------|---------|---------|---------|---------|
|---------|---------|---------|---------|---------|---------|---------|
|---------|---------|---------|---------|---------|---------|---------|
|---------|---------|---------|---------|---------|---------|---------|
|---------|---------|---------|---------|---------|---------|---------|
|---------|---------|---------|---------|---------|---------|---------|

|---------|---------|---------|---------|---------|---------|---------|
|---------|---------|---------|---------|---------|---------|---------|
|---------|---------|---------|---------|---------|---------|---------|
|---------|---------|---------|---------|---------|---------|---------|
|---------|---------|---------|---------|---------|---------|---------|
|---------|---------|---------|---------|---------|---------|---------|

|---------|---------|---------|---------|---------|---------|---------|
|---------|---------|---------|---------|---------|---------|---------|
|---------|---------|---------|---------|---------|---------|---------|
|---------|---------|---------|---------|---------|---------|---------|
|---------|---------|---------|---------|---------|---------|---------|
|---------|---------|---------|---------|---------|---------|---------|

|---------|---------|---------|---------|---------|---------|---------|
|---------|---------|---------|---------|---------|---------|---------|
|---------|---------|---------|---------|---------|---------|---------|
|---------|---------|---------|---------|---------|---------|---------|
|---------|---------|---------|---------|---------|---------|---------|
|---------|---------|---------|---------|---------|---------|---------|

|---------|
|---------|
|---------|
|---------|
|---------|
|---------|


The Choir part during the interlude.. 

E |---------|---------|---------|---------|---------|---------|---------|
B |---------|---------|---------|---------|---------|---------|---------|
G |---------|---------|---------|---------|---------|---------|---------|
D |---------|---------|---------|---------|---------|---------|---------|
A |---------|---------|---------|---------|---------|---------|---------|
E |---------|---------|---------|---------|---------|---------|---------|

|---------|---------|---------|---------|---------|---------|---------|
|---------|---------|---------|---------|---------|---------|---------|
|---------|---------|---------|---------|---------|---------|---------|
|---------|---------|---------|---------|---------|---------|---------|
|---------|---------|---------|---------|---------|---------|---------|
|---------|---------|---------|---------|---------|---------|---------|

|---------|---------|---------|---------|---------|---------|---------|
|---------|---------|---------|---------|---------|---------|---------|
|---------|---------|---------|---------|---------|---------|---------|
|---------|---------|---------|---------|---------|---------|---------|
|---------|---------|---------|---------|---------|---------|---------|
|---------|---------|---------|---------|---------|---------|---------|

|---------|---------|---------|---------|---------|---------|---------|
|---------|---------|---------|---------|---------|---------|---------|
|---------|---------|---------|---------|---------|---------|---------|
|---------|---------|---------|---------|---------|---------|---------|
|---------|---------|---------|---------|---------|---------|---------|
|---------|---------|---------|---------|---------|---------|---------|

|---------|---------|---------|---------|---------|---------|---------|
|---------|---------|---------|---------|---------|---------|---------|
|---------|---------|---------|---------|---------|---------|---------|
|---------|---------|---------|---------|---------|---------|---------|
|---------|---------|---------|---------|---------|---------|---------|
|---------|---------|---------|---------|---------|---------|---------|

|---------|---------|---------|---------|---------|---------|---------|
|---------|---------|---------|---------|---------|---------|---------|
|---------|---------|---------|---------|---------|---------|---------|
|---------|---------|---------|---------|---------|---------|---------|
|---------|---------|---------|---------|---------|---------|---------|
|---------|---------|---------|---------|---------|---------|---------|

|---------|---------|---------|---------|---------|---------|---------|
|---------|---------|---------|---------|---------|---------|---------|
|---------|---------|---------|---------|---------|---------|---------|
|---------|---------|---------|---------|---------|---------|---------|
|---------|---------|---------|---------|---------|---------|---------|
|---------|---------|---------|---------|---------|---------|---------|

|---------|---------|---------|---------|---------|---------|---------|
|---------|---------|---------|---------|---------|---------|---------|
|---------|---------|---------|---------|---------|---------|---------|
|---------|---------|---------|---------|---------|---------|---------|
|---------|---------|---------|---------|---------|---------|---------|
|---------|---------|---------|---------|---------|---------|---------|

|---------|---------|---------|---------|---------|---------|---------|
|---------|---------|---------|---------|---------|---------|---------|
|---------|---------|---------|---------|---------|---------|---------|
|---------|---------|---------|---------|---------|---------|---------|
|---------|---------|---------|---------|---------|---------|---------|
|---------|---------|---------|---------|---------|---------|---------|

|---------|---------|---------|---------|---------|---------|---------|
|---------|---------|---------|---------|---------|---------|---------|
|---------|---------|---------|---------|---------|---------|---------|
|---------|---------|---------|---------|---------|---------|---------|
|---------|---------|---------|---------|---------|---------|---------|
|---------|---------|---------|---------|---------|---------|---------|

|---------|---------|---------|---------|---------|---------|---------|
|---------|---------|---------|---------|---------|---------|---------|
|---------|---------|---------|---------|---------|---------|---------|
|---------|---------|---------|---------|---------|---------|---------|
|---------|---------|---------|---------|---------|---------|---------|
|---------|---------|---------|---------|---------|---------|---------|

|---------|---------|---------|---------|---------|---------|---------|
|---------|---------|---------|---------|---------|---------|---------|
|---------|---------|---------|---------|---------|---------|---------|
|---------|---------|---------|---------|---------|---------|---------|
|---------|---------|---------|---------|---------|---------|---------|
|---------|---------|---------|---------|---------|---------|---------|

|---------|---------|---------|---------|---------|---------|---------|
|---------|---------|---------|---------|---------|---------|---------|
|---------|---------|---------|---------|---------|---------|---------|
|---------|---------|---------|---------|---------|---------|---------|
|---------|---------|---------|---------|---------|---------|---------|
|---------|---------|---------|---------|---------|---------|---------|

|---------|---------|---------|---------|---------|---------|---------|
|---------|---------|---------|---------|---------|---------|---------|
|---------|---------|---------|---------|---------|---------|---------|
|---------|---------|---------|---------|---------|---------|---------|
|---------|---------|---------|---------|---------|---------|---------|
|---------|---------|---------|---------|---------|---------|---------|

|---------|---------|---------|---------|---------|---------|---------|
|---------|---------|---------|---------|---------|---------|---------|
|---------|---------|---------|---------|---------|---------|---------|
|---------|---------|---------|---------|---------|---------|---------|
|---------|---------|---------|---------|---------|---------|---------|
|---------|---------|---------|---------|---------|---------|---------|

|---------|---------|---------|---------|---------|---------|---------|
|---------|---------|---------|---------|---------|---------|---------|
|---------|---------|---------|---------|---------|---------|---------|
|---------|---------|---------|---------|---------|---------|---------|
|---------|---------|---------|---------|---------|---------|---------|
|---------|---------|---------|---------|---------|---------|---------|

|---------|---------|---------|---------|---------|---------|---------|
|---------|---------|---------|---------|---------|---------|---------|
|---------|---------|---------|---------|---------|---------|---------|
|---------|---------|---------|---------|---------|---------|---------|
|---------|---------|---------|---------|---------|---------|---------|
|---------|---------|---------|---------|---------|---------|---------|

|---------|---------|-10--------|-----12----|-14--------|-12----------|
|---------|---------|-10--------|-----------|-15--------|-------14----|
|---------|---------|-----------|-----------|-----------|-------------|
|---------|---------|-----------|-----------|-----------|-------------|
|---------|---------|-----------|-----------|-----------|-------------|
|---------|---------|-----------|-----------|-----------|-------------|

|-10--------|-15--------|-12--------|-----------|-10--------|-----12----|
|-12--------|-----------|-15--------|-14--------|-10--------|-----------|
|-----------|-----------|-14--------|-----------|-----------|-----------|
|-----------|-----------|-----------|-----------|-----------|-----------|
|-----------|-----------|-----------|-----------|-----------|-----------|
|-----------|-----------|-----------|-----------|-----------|-----------|

|-14--------|-12----------|-17---------------12-|----------------17-|
|-15--------|-------14----|-15------------------|----------------17-|
|-----------|-------------|---------------------|----------------19-|
|-----------|-------------|---------------------|-------------------|
|-----------|-------------|---------------------|-------------------|
|-----------|-------------|---------------------|-------------------|

|----------------17-|---------|-14---------------14-|------------------14-|
|----------------17-|---------|-15------------------|-12---------------15-|
|----------------19-|---------|-18------------------|---------------------|
|-------------------|---------|---------------------|---------------------|
|-------------------|---------|---------------------|---------------------|
|-------------------|---------|---------------------|---------------------|

|-----------|-12--------|-17--------|-----15----|-12--------|-----------|
|-10--------|-14--------|-15--------|-----------|-15--------|-14--------|
|-----------|-----------|-----------|-----------|-14--------|-----------|
|-----------|-----------|-----------|-----------|-----------|-----------|
|-----------|-----------|-----------|-----------|-----------|-----------|
|-----------|-----------|-----------|-----------|-----------|-----------|

|-10--------|---------|---------|---------|---------|---------|---------|
|-12--------|---------|---------|---------|---------|---------|---------|
|-14--------|---------|---------|---------|---------|---------|---------|
|-----------|---------|---------|---------|---------|---------|---------|
|-----------|---------|---------|---------|---------|---------|---------|
|-----------|---------|---------|---------|---------|---------|---------|

|---------|---------|---------|---------|---------|---------|---------|
|---------|---------|---------|---------|---------|---------|---------|
|---------|---------|---------|---------|---------|---------|---------|
|---------|---------|---------|---------|---------|---------|---------|
|---------|---------|---------|---------|---------|---------|---------|
|---------|---------|---------|---------|---------|---------|---------|

|---------|---------|
|---------|---------|
|---------|---------|
|---------|---------|
|---------|---------|
|---------|---------|

VGJam Tabs Chrono Cross - "Radical Dreamers ~ Unstealable Jewel"
Tabs database last modified Tuesday, 01-Nov-2016 19:14:53 UTC.
Copyright © 1999 - 2016 VideoGameJam.com. All rights reserved.