VGJam Tabs Chrono Cross
Chrono Cross
"Radical Dreamers ~ Unstealable Jewel" - Guitar tab
Platform(s):PlayStation
Composed by:Yasunori Mitsuda
Soundtrack:Chrono Cross Original Soundtrack (track D3-15)
Tabbed by:Aats aka Kula
Last modified:2001-04-20
Print it:Original file (.TXT)
Hear it:MIDI file
#----------------------------------PLEASE NOTE--------------------------------#
#This file is the author's own work and represents their interpretation of the#
#song. You may only use this file for private study, scholarship, or research.#
#-----------------------------------------------------------------------------#
#-- File created with Instab - http://www.pconline.com/~smcarey/instab.html --#
#-----------------------------------------------------------------------------#

Author/Artist: M. Yasunori
Title: Radical Dreamer / Le Tresor Interdit
Album: Chrono Cross PSX
Transcribed by: Aats, from mp3+peacemaker & midi
Email: phasevxd@yahoo.com

well, IMO this is the right tabs, but who care  ^_#
please note that <1a>, <1b>, <2a>, .... etc just to show you the pattern
geocities.com/phasevxd 

-------------------------------------2-----------------2---------|------------
---------0---------------0---------------3---------2-------2-----|------------
-----2-------2-------2-------2---------------4---------------2---|------------
---0-------0-------2-------2-------4-------4---------4---------4-|------------
-----------------0-----0---------2-----2---------0-------0-------|------------
-3-----3---------------------------------------------------------|------------
 <1a>

-----------------------------------------0-----------0-|----------------------
---------0---------------0-------------0---0-------0---|----------------------
-----2-------2-------2-------2-------2-------2-----1---|----------------------
---0-------0-------2-------2-------2-----------2---2---|----------------------
-----------------0-----0---------------------------2---|----------------------
-3-----3-------------------------0-----------------0---|----------------------
 <1b>

-------------------------------------2-----------------2---------|------------
---------0---------------0---------------3---------0-------0-----|------------
-----2-------2-------2-------2---------------4---------------2---|------------
---0-------0-------2-------2-------4-------4---------4---------4-|------------
-----------------0-----0---------2-----2---------0-------0-------|------------
-3-----3---------------------------------------------------------|------------
 <2a>

---------------------------------------0---------|----------------------------
---------0---------------0-----------0---0---4---|----------------------------
-----2-------2-------2-------2-------------------|----------------------------
---0-------0-------2-------2-------4-------4-----|----------------------------
-----------------0-----0---------2---------------|----------------------------
-3-----3-----------------------------------------|----------------------------
 <2b>

-------------------------------------2-----------------2---------|------------
---------0---------------0---------------3---------0-------0-----|------------
-----2-------2-------2-------2---------------4---------------2---|------------
---0-------0-------2-------2-------4-------4---------4---------4-|------------
-----------------0-----0---------2-----2---------0-------0-------|------------
-3-----3---------------------------------------------------------|------------
 <3a>

-----------------------------------------------------------------|------------
---------0---------------0---------------------------------------|------------
-----2-------2-------2-------2-----------2-------------4-------3-|------------
---0-------0-------2-------2---------2-------2-------4-------4---|------------
-----------------0-----0-----------2-------2-------4-------4-----|------------
-3-----3-------------------------0-----0---------2-------2-------|------------
 <3b>

-------------------------------------2-----------------2---------|------------
---------0---------------0---------------3---------0-------3-0---|------------
-----2-------2-------2-------2---------------4-------------------|------------
---0-------0-------2-------2-------4-------4---------4---------4-|------------
-----------------0-----0---------2-----2---------0-------0-------|------------
-3-----3---------------------------------------------------------|------------
 <4a>

---------------------------------------2-------------2---------|--------------
---------0---------------0-------------2---2---------2---2-----|--------------
-----2-------2-------2-------2---------4-------------3-----3---|--------------
---0-------0-------2-------2---------4-------------4---------4-|--------------
-----------------0-----0-----------4-------------4-------------|--------------
-3-----3-------------------------2-------2-----2-------2-------|--------------
 <4b>

-------------------------------------2-----------------2---------|------------
---------0---------------0---------------3---------0-------3-0---|------------
-----2-------2-------2-------2---------------4-------------------|------------
---0-------0-------2-------2-------4-------4---------4---------4-|------------
-----------------0-----0---------2-----2---------0-------0-------|------------
-3-----3---------------------------------------------------------|------------
 <5a>

-----------------------------------------------------------------|------------
---------0---------------0-------------------------2---0---0-----|------------
-----2-------2-------2-------2-----------2---------------------3-|------------
---0-------0-------2-------2---------2-------2-------4-------4---|------------
-----------------0-----0-----------2-------2---------------------|------------
-3-----3-------------------------0-----0---------2-------2-------|------------
 <5b>

-------------------------------------2-----------------2---------|------------
---------0---------------0---------------3---------0-------3-0---|------------
-----2-------2-------2-------2---------------4-------------------|------------
---0-------0-------2-------2-------4-------4---------4---------4-|------------
-----------------0-----0---------2-----2---------0-------0-------|------------
-3-----3---------------------------------------------------------|------------
 <6a>

---------------------------------------------------------2---------|----------
---------0---------------0-----------------2---0-------------2-----|----------
-----2-------2-------2-------2---------4-----------------------3---|----------
---0-------0-------2-------2---------4-------4---------4---------4-|----------
-----------------0-----0-----------4-----------------4-------------|----------
-3-----3-------------------------2-------2---------2-------2-------|----------
 <6b>

-----------------------------------------------------------------|------------
---------0---------------0-------------------------3-------2-----|------------
-----2-------2-------2-------2-----------2-------------4-------2-|------------
---0-------0-------2-------2---------4-------4-------4-------4---|------------
-----------------0-----0-----------4-------4-----2-------0-------|------------
-3-----3-------------------------2-----2-------------------------|------------
 <7a>

-------------------------------------0-----0-----0---------|------------------
---------0---------------0-------0-3---0-2-----------2-0---|------------------
-----2-------2-------2-------------------------------------|------------------
---0-------0-------2-----------4---------------4---------4-|------------------
-----------------0-----0-----2---------------------0-------|------------------
-3-----3---------------------------------------------------|------------------
 <7b>

-----------------------------------------------------------------|------------
---------0---------------0-------------------------3---2---0-----|------------
-----2-------2-------2-------2-----------2---------------------2-|------------
---0-------0-------2-------2---------4-------4-------4-------4---|------------
-----------------0-----0-----------4-------4-----2-------0-------|------------
-3-----3-------------------------2-----2-------------------------|------------
 <8a>

---------------------------0---5-|--------------------------------------------
---------0---------------2-------|--------------------------------------------
-----2-------2-------2-2---------|--------------------------------------------
---0-------0-------2-------------|--------------------------------------------
-----------------0---------------|--------------------------------------------
-3-----3-------------------------|--------------------------------------------
 <8b>

-------------------------------------2-----------------2---------|------------
---------0---------------0---------------3---------0-------3-0---|------------
-----2-------2-------2-------2---------------4-------------------|------------
---0-------0-------2-------2-------4-------4---------4---------4-|------------
-----------------0-----0---------2-----2---------0-------0-------|------------
-3-----3---------------------------------------------------------|------------
 <9a>

-----------------------------------------0---------0-----|--------------------
---------0---------------0-------------0---0-------0-----|--------------------
-----2-------2-------2-------2-------2-------2-----1-----|--------------------
---0-------0-------2-------2-------2-----------2---2-----|--------------------
-----------------0-----0---------------------------2-----|--------------------
-3-----3-------------------------0-----------------0-0-2-|--------------------
 <9b>

-------------------------------------2-----------------2---------|------------
---------0---------------0---------------3---------0-------3-0---|------------
-----2-------2-------2-------2---------------4-------------------|------------
---0-------0-------2-------2-------4-------4---------4---------4-|------------
-----------------0-----0---------2-----2---------0-------0-------|------------
-3-----3---------------------------------------------------------|------------
 <10a>

---------------------------------------0-------0-----|------------------------
---------0---------------0-----------0-------0-----4-|------------------------
-----2-------2-------2-------2-----------------------|------------------------
---0-------0-------2-------2-------4-------4---------|------------------------
-----------------0-----0---------2-------2-----------|------------------------
-3-----3---------------------------------------------|------------------------
 <10b>

-------------------------------------2-----------------2---------|------------
---------0---------------0---------------3---------0-------3-0---|------------
-----2-------2-------2-------2---------------4-------------------|------------
---0-------0-------2-------2-------4-------4---------4---------4-|------------
-----------------0-----0---------2-----2---------0-------0-------|------------
-3-----3---------------------------------------------------------|------------
 <11a>

-----------------------------------------------------------------|------------
---------0---------------0-------------------------2---0---0-----|------------
-----2-------2-------2-------2-----------2---------------------3-|------------
---0-------0-------2-------2---------2-----2---------4-------4---|------------
-----------------0-----0-----------2---------2-------------------|------------
-3-----3-------------------------0-----0---------2-------2-------|------------
 <11b>

-------------------------------------2-----------------2---------|------------
---------0---------------0---------------3---------0-------3-0---|------------
-----2-------2-------2-------2---------------4-------------------|------------
---0-------0-------2-------2-------4-------4---------4---------4-|------------
-----------------0-----0---------2-----2---------0-------0-------|------------
-3-----3---------------------------------------------------------|------------
 <12a>

-----------------------------------------2-----------------2-------|----------
---------0---------------0-----------------2-0---------------2-----|----------
-----2-------2-------2-------2---------4-----------------3-----3---|----------
---0-------0-------2-------2---------4---------4-------4---------4-|----------
-----------------0-----0-----------4-----------------4-------------|----------
-3-----3-------------------------2-----------------2---------------|----------
 <12b>

-----------------------------------------------------------------|------------
---------0---------------0-------------------------3-------2-----|------------
-----2-------2-------2-------2-----------2-------------4-------2-|------------
---0-------0-------2-------2---------4-------4-------4-------4---|------------
-----------------0-----0-----------4-------4-----2-------0-------|------------
-3-----3-------------------------2-----2-------------------------|------------
 <13a>

-----------------------------------------0-------------0-------|--------------
---------0---------------0-----------0-3-----2-0-----0-----2---|--------------
-----2-------2-------2-------2-------------------------------2-|--------------
---0-------0-------2-------2-------4-------4-------4-----4-----|--------------
-----------------0-----0---------2-----------------------------|--------------
-3-----3-------------------------------------------------------|--------------
 <13b>

-------------------------------------------------------------------|----------
---------0---------------0-----------------2---------3-------2-----|----------
-----2-------2-------2-------2---------2-------2---------4-------2-|----------
---0-------0-------2-------2---------4-------4---------4-------4---|----------
-----------------0-----0-----------4---------------2-------0-------|----------
-3-----3-------------------------2-------2-------------------------|----------
 <14a>

-----------------------------------------0-----------0-|----------------------
---------0---------------0-------------0---0-------0---|----------------------
-----2-------2-------2-------2-------2-------2-----1---|----------------------
---0-------0-------2-------2-------2-----------2---2---|----------------------
-----------------0-----0---------------------------2---|----------------------
-3-----3-------------------------0-----------------0---|----------------------
 <14b>

*bridge*
-------2---------------2---------------2------------------|-------------------
-----3---3---------3-----3---------3-----3----------3---2-|-------------------
---2-------2-----2---------2-----2---------2------2-------|-------------------
-------------------------------0-----0---------0----------|-------------------
-2----------------------------------------------0-----0---|-------------------
---------------3-----3------------------------------------|-------------------
 

-------2---------------2---------------0-----------0-----|--------------------
-----3---3---------3-----3---------3-----3-----2-----2---|--------------------
---2-------2-----2---------2-----2-----------2---------2-|--------------------
---------------------------------------------------------|--------------------
-2-----------------------------0-----0-----0-----0-------|--------------------
---------------3-----3-----------------------------------|--------------------
  repeat this A1 and A2 4x 
 (for bass string, use your thumb instead of using your forefinger)

*oh, here's another version of the bridge*
-------2-----------------2-----------------2----------------------------------
-----------3-----------------3-----------------3-------------3---2------------
-----4-------4---------4---------4-------2-------2---------2-------2----------
---4-----------4-----4---------4-------4-----------4-----2-----------2--------
-2-------2---------------------------5-------5---------0-------0--------------
-------------------3-------3--------------------------------------------------
 

-------2-----------------2---------------------0-----------------0------------
-----------3-----------------3-----------3---------3-------2---------2--------
-----4-------4---------4---------4---------2-----2-----------2-----2----------
---4-----------4-----4---------4-------2-----------------2--------------------
-2-------2---------------------------0-------0---------0-------0--------------
-------------------3-------3--------------------------------------------------
 



*outro*
-------------------------------------2-----------------2---------|------------
---------0---------------0---------------3---------0-------3-0---|------------
-----2-------2-------2-------2---------------4-------------------|------------
---0-------0-------2-------2-------4-------4---------4---------4-|------------
-----------------0-----0---------2-----2---------0-------0-------|------------
-3-----3---------------------------------------------------------|------------
 <15a>

-----------------------------------------0---------------------|--------------
---------0---------------0-----------2-0-----------------2---0-|--------------
-----2-------2-------2-------2---------------2-------4---------|--------------
---0-------0-------2-------2-------4-------4-----4-4---4---4---|--------------
-----------------0-----0---------2-----------------------------|--------------
-3-----3-------------------------------------------------------|--------------
 <15b>

-------------------------------------2-----------------2---------|------------
---------0---------------0---------------3---------0-------3-0---|------------
-----2-------2-------2-------2---------------4-------------------|------------
---0-------0-------2-------2-------4-------4---------4---------4-|------------
-----------------0-----0---------2-----2---------0-------0-------|------------
-3-----3---------------------------------------------------------|------------
 <16a>

---------------------------0-------------|------------------------------------
---------0---------------0---0-------5h4-|------------------------------------
-----2-------2---------2-------2-----4---|------------------------------------
---0-------0---------2-----------2---4---|------------------------------------
-----------------0-0-----------------2---|------------------------------------
-3-----3---------------------------------|------------------------------------
 <16b>

VGJam Tabs Chrono Cross - "Radical Dreamers ~ Unstealable Jewel"
Tabs database last modified Tuesday, 01-Nov-2016 19:14:53 UTC.
Copyright © 1999 - 2016 VideoGameJam.com. All rights reserved.