VGJam Tabs Chrono Cross
Chrono Cross
"Radical Dreamers ~ Unstealable Jewel (arrangement)" - Guitar tab
Platform(s):PlayStation
Composed by:Yasunori Mitsuda
Tabbed by:Justin Lincoln
Last modified:2008-01-13
Date added:2008-03-02
Print it:Original file (.TXT)
Hear it:MIDI file
Radical Dreamers
~Chrono Cross~
Composed by: Yasunori Mitsuda
Arranged by: Justin Lincoln

bpm=80

      E  S S S S S S E  S S S S S S    E  S S S S S S S S S S S S S S
E||---------------------------------|-------2---------------2---------|
B||------------0--------------0-----|-----------3-------2-------2-----|
G||*-------2-------2------2-------2-|---------------4-------------2---|
D||*-----0-------0------2-------2---|-----4-------4-------4---------4-|
A||------------------0------0-------|--2------2-------0-------0-------|
E||---3------3----------------------|---------------------------------|

                                   1st ending--------------
  E  S S S S S S E  S S S S S S    S S S S S S S S H
--------------------------------|----------0-----------------||
-----------0--------------0-----|--------0---0-----0---------||
-------2-------2------2-------2-|------2-------2---1--------*||
-----0-------0------2-------2---|----2-----------2----------*||
-----------------0------0-------|----------------------------||
--3------3----------------------|--0---------------0---------||

  2nd ending-------------
  E  S S S S S S H             E  S S S S S S S S S S S S S S
-----------0--------------||----------2-3---5---0-------------|
-------0-----0---4--------||------------------------3---2-----|
--------------------------||*-------2-----------------------2-|
-----4---------4-4--------||*-----0-------0-------2-------2---|
--2------2-------2--------||------------------0-------0-------|
--------------------------||---3------3-----------------------|


  E  S S S S S S S S S S S S S S    E  S S S S S S S S S S S S S S
-------2---------------2---------|---------2-3---5---0-------------|
--2--------3-------2-------2-----|-----------------------3---2-----|
-----4---------4-------------2---|-------2-----------------------2-|
-------------4-------4---------4-|-----0-------0-------2-------2---|
--2------2-------0-------0-------|-----------------0-------0-------|
---------------------------------|--3------3-----------------------|


  E  S S S S S S E  S T  T S S S S    E  S S S S S S S S S S S S S S
--0----------2--------3p-2-0-------|---------2-3---5---0-------------|
-------0---------------------2-----|-----------------------3---2-----|
---------------------------------3-|-------2-----------------------2-|
-----2-----2---2----2----------4---|-----0-------0-------2-------2---|
-----------------------------------|-----------------0-------0-------|
--0------0-------2---------2-------|--3------3-----------------------|

                                    1st ending-----------------
  E  S S S S S S S S S S S S S S    E  S S S S S S E  S S S S S S
-------2---------------2---0-2---|-----------0-2-0-L------0-------|
--2--------3-------2-----3-----3-|--L------3----------------0-3-2-|
-----4---------4-----------------|-------2--------------2---------|
-------------4-------4-----------|-----0--------------2-----------|
--2------2-------0-------0-------|-----------------0------0-------|
---------------------------------|--3------3----------------------|

  2nd ending---------------------
  S S S S S S S S E  S S S S S S      E  S S S S S S S S S S S S S S
--------2--------------2----------||-----------------------2---------|
------0-----2-0------------2------||-----------2---------3-----2-----|
----------------3------------2---*||-------4-------4-------------3---|
----2----------------4---------4-*||-----2-------2-----4-----------4-|
----------------------------------||---------------------------------|
--2-------2-------2------2--------||--2------2-------2-------2-------|


  E  S S S S S S E  S S S S S S    E  S S S S S S E  S S S S S S
-------2---------0----5---------|--2-----------------------------|
--0--------0--------------0-----|-------2-----2---3--2-0-3-2---0-|
---------------2--------------2-|---------------2----------------|
-----0-------0------2-------2---|-----2-----2----------------4---|
-----------------0------0-------|-----------------2------0-------|
--3------3----------------------|--2------2----------------------|


  E  S S S S S S E  S S S S S S    E  S S S S S S S S S S S S S S
-------2---------0----5---------|-------9-----7-----0-------0-----|
--0--------0--------------0-----|--7--------------------2-------0-|
---------------2--------------2-|---------------7-----2-------2---|
-----0-------0------2-------2---|-----7-----7---------------------|
-----------------0------0-------|-----------------0-------0-------|
--3------3----------------------|--7------7-----------------------|


  E  S S S S S S E  S S S S S S    E  S S S S S S E  S S S S S S
-------2---------0----5---------|--2-----------------------------|
--0--------0--------------0-----|-------2-----2---3--2-0-3-2---0-|
---------------2--------------2-|---------------2----------------|
-----0-------0------2-------2---|-----2-----2----------------4---|
-----------------0------0-------|-----------------2------0-------|
--3------3----------------------|--2------2----------------------|


  E  S S S S S S E  S S S S S S    H        Q    E  S S
-------------2-0----------5---0-|--5--------------------|
--3----3---0----------------3---|----------------3--2-3-|
----------------------2---------|-----------------------|
-----0--------------2-----------|--2--------------------|
-----------------0------0-------|--0--------0-----------|
--3------3----------------------|-----------------------|


    E  S S S S S S E  S S S S S S    E  S S S S S S S S S S S S S S
|---------------------------------|-------2---------------2---------|
|------------0--------------0-----|-----------3-------2-------2-----|
|*-------2-------2------2-------2-|---------------4-------------2---|
|*-----0-------0------2-------2---|-----4-------4-------4---------4-|
|------------------0------0-------|--2------2-------0-------0-------|
|---3------3----------------------|---------------------------------|

                                   1st ending----------------
  E  S S S S S S E  S S S S S S    S S S S S S S S Q    E  E
--------------------------------|----------0-------------------||
-----------0--------------0-----|--------0---0-----0-----------||
-------2-------2------2-------2-|------2-------2---1----------*||
-----0-------0------2-------2---|----2-----------2------------*||
-----------------0------0-------|------------------------------||
--3------3----------------------|--0---------------0----0--2---||

  2nd ending-------------
  S S S S S S S S H           E  S S S S S S S S S S S S S S
--------0-------0----------|---------2-3---5---0-------------|
------0-------0---4--------|-----------------------3---2-----|
---------------------------|-------2-----------------------2-|
----4-------4-----4--------|-----0-------0-------2-------2---|
--2-------2-------2--------|-----------------0-------0-------|
---------------------------|--3------3-----------------------|


  E  S S S S S S S S S S S S S S    E  S S S S S S S S S S S S S S
-------2---------------2---------|---------2-3---5---0-------------|
--2--------3-------2-------2-----|-----------------------3---2-----|
-----4---------4-------------2---|-------2-----------------------2-|
-------------4-------4---------4-|-----0-------0-------2-------2---|
--2------2-------0-------0-------|-----------------0-------0-------|
---------------------------------|--3------3-----------------------|


  E  S S S S S S E  S T  T S S S S    E  S S S S S S S S S S S S S S
--0----------2--------3p-2-0-------|---------2-3---5---0-------------|
-------0---------------------2-----|-----------------------3---2-----|
---------------------------------3-|-------2-----------------------2-|
-----2-----2---2----2----------4---|-----0-------0-------2-------2---|
-----------------------------------|-----------------0-------0-------|
--0------0-------2---------2-------|--3------3-----------------------|


  E  S S S S S S S S S S S S S S    E  S S S S S S E  S S S S S S
-------2---------------2---0-2---|-----------0-2-0-L------0-------|
--2--------3-------2-----3-----3-|--L------3----------------0-3-2-|
-----4---------4-----------------|-------2--------------2---------|
-------------4-------4-----------|-----0--------------2-----------|
--2------2-------0-------0-------|-----------------0------0-------|
---------------------------------|--3------3----------------------|


  S S S S S S S S E  S S S S S S    E  S S S S S S E  S S S S S S
--------2--------------2---------|-------2---------0----5---------|
------0-----2-0------------2-----|--0--------0--------------0-----|
----------------3------------2---|---------------2--------------2-|
----2----------------4---------4-|-----0-------0------2-------2---|
---------------------------------|-----------------0------0-------|
--2-------2-------2------2-------|--3------3----------------------|


  E  S S S S S S E  S S S S S S    E  S S S S S S E  S S S S S S
--2-----------------------------|-------2---------0----5---------|
-------2-----2---3--2-0-3-2---0-|--0--------0--------------0-----|
---------------2----------------|---------------2--------------2-|
-----2-----2----------------4---|-----0-------0------2-------2---|
-----------------2------0-------|-----------------0------0-------|
--2------2----------------------|--3------3----------------------|


  E  S S S S S S S S S S S S S S    E  S S S S S S E  S S S S S S
-------9-----7-----0-------0-----|-------2---------0----5---------|
--7--------------------2-------0-|--0--------0--------------0-----|
---------------7-----2-------2---|---------------2--------------2-|
-----7-----7---------------------|-----0-------0------2-------2---|
-----------------0-------0-------|-----------------0------0-------|
--7------7-----------------------|--3------3----------------------|


  E  S S S S S S E  S S S S S S    E  S S S S S S E  S S S S S S
--2-----------------------------|-------2---------0--------------|
-------2-----2---3--2-0-3-2---0-|--0--------0----------3---0-2---|
---------------2----------------|---------------2----------------|
-----2-----2----------------4---|-----0-------0------2---------2-|
-----------------2------0-------|-----------------0------0-------|
--2------2----------------------|--3------3----------------------|


  S S S S S S S S H           S S S S S S S S S S S S S S S S
----------0-------0--------|--------2---------------2---------|
--0-----0---0-----0--------|------------3---------------3-----|
------2-------2---1--------|------4-------4-------0-------0---|
----2-----------2----------|----4-----------4---4-----------4-|
---------------------------|--2-------2-----------------------|
--0---------------0--------|------------------3-------3-------|


  S S S S S S S S S S S S S S S S    S S S S S S S S S S S S S S S S
--------2-------------------------|--------2---------------2---------|
------3-----3-----------3---2-----|------------3---------------3-----|
----2---------2-------2-------2---|------4-------4-------0-------0---|
--0-------0-----0---2-----------2-|----4-----------4---4-----------4-|
------------------0-------0-------|--2-------2-----------------------|
----------------------------------|------------------3-------3-------|


  S S S S S S S S S S S S S S S S    E  S S S S S S S S S S E  S S
------------2-------------0-------|-------2---------------2-0------|
------3-0-------3---0-2-----0-2---|--3--------3--------------------|
----2---------2---------2-------2-|-----4-------4-------0---2--0---|
----------------------------------|--4------------4---4----------4-|
--0-------0-------0-------0-------|--2------2----------------------|
----------------------------------|-----------------3-------3------|


  E  S S S S S S E  S S E  S S    E  S S S S S S E  S S S S S S
--2----2---------0-------------|-------2---------3----2---------|
--3--3-----3-----3----3-2------|--3--------3-----0--------3-----|
-------------2------2------2---|--4--4-------4------0-------0---|
--0------0-----0-------------2-|---------------4--------------4-|
-----------------0------0------|--2------2----------------------|
-------------------------------|-----------------3------3-------|


  E  S S S S S S E  S S S S S S    E  S S S S S S S S S S E  S S
--0--------0-----0------0-------|-------2---------------2-0------|
--3--3-0-------3-2--2-----0-2---|--3--------3--------------------|
-------------2--------2-------2-|-----4-------4-------0---2--0---|
--------------------------------|--4------------4---4----------4-|
--0------0-------0------0-------|--2------2----------------------|
--------------------------------|-----------------3-------3------|


  E  S S S S S S E  S S E  S S    E  S S S S S S S S S S S S S S
--2----2---------0-------------|--5----2---------------2---------|
--3--3-----3-----3----3-2------|--5--------3---------------3-----|
-------------2------2------2---|-----4-------4-------0-------0---|
--0------0-----0-------------2-|---------------4---4-----------4-|
-----------------0------0------|--2------2-----------------------|
-------------------------------|-----------------3-------3-------|


  S S S S S S S S S S S S S S S S    E  S S S S S S E  S S S S S S
------------0-------------0-------|--2----2---------2----2---------|
------3-0-------3---0-2-----0-2---|--2--------3-----0--------3-----|
----2---------2---------2-------2-|-----4-------4------0-------0---|
----------------------------------|---------------4--------------4-|
--0-------0-------0-------0-------|--2------2----------------------|
----------------------------------|-----------------3------3-------|


  E  S S S S S S E  S S E  S S    E  S S S S S S S S S S S S S S
--2----2---------0-------------|--5----2---------------2-3-------|
-----3-----3-----3----3-2------|--3--0-----3-0-------------0-----|
--2----------2------2------2---|---------------------0-------0---|
--0------0-----0-------------2-|---------------4---4-----------4-|
-----------------0------0------|--2------2-----------------------|
-------------------------------|-----------------3-------3-------|


  E  S S S S S S S S S S S S S S    E  S S S S S S E  S S S S S S
--0--------0-----------0---------|--------------------------------|
-----3-0-------3---0-2-----0-2---|--0--------0--------------0-----|
--2----------2-----------------2-|--2----2-------2------2-------2-|
---------------------------------|-----0-------0------2-------2---|
--0------0-------0-------0-------|-----------------0------0-------|
---------------------------------|--3------3----------------------|


  E  S S S S S S S S S S S S S S    E  S S S S S S E  S S S S S S
-------2---------------2---------|--------------------------------|
-----------3-------2-------2-----|-----------0--------------0-----|
---------------4-------------2---|-------2-------2------2-------2-|
-----4-------4-------4---------4-|-----0-------0------2-------2---|
--2------2-------0-------0-------|-----------------0------0-------|
---------------------------------|--3------3----------------------|


  S S S S S S S S S S S S S S S S    E  S S S S S S E  S S S S S S
--------0---2---------------------|--------------------------------|
------3-------3-0---2-------2-----|-----------0--------------0-----|
----2-------------------4-------4-|-------2-------2------2-------2-|
----------------------4-------4---|-----0-------0------2-------2---|
--2-------2-------0-------0-------|-----------------0------0-------|
----------------------------------|--3------3----------------------|


  E  S S S S S S S S S S S S S S    E  S S S S S S E  S S S S S S
-------2---------------2---------|--------------------------------|
-----------3-------2-------2-----|-----------0--------------0-----|
---------------4-------------2---|-------2-------2------2-------2-|
-----4-------4-------4---------4-|-----0-------0------2-------2---|
--2------2-------0-------0-------|-----------------0------0-------|
---------------------------------|--3------3----------------------|


                             ^
  E  S S S S S S H           W
-----------0--------------|--2----------------||
-------0-----0---4--------|--4----------------||
--------------------------|--4----------------||
-----4---------4-4--------|-------------------||
--2------2-------2--------|--2----------------||
--------------------------|-------------------||




Duration Legend
---------------
W - whole
H - half
Q - quarter
E - 8th
S - 16th
T - 32nd
X - 64th
. - note dotted
|-n-|  - n-tuplets


Tablature Legend
----------------
L - tied note
p - pull off
^ - brush up

VGJam Tabs Chrono Cross - "Radical Dreamers ~ Unstealable Jewel (arrangement)"
Tabs database last modified Tuesday, 01-Nov-2016 19:14:53 UTC.
Copyright © 1999 - 2016 VideoGameJam.com. All rights reserved.