VGJam Tabs Guilty Gear X
Guilty Gear X
"Burly Heart" - Guitar tab
Platform(s):PlayStation 2
Composed by:Daisuke Ishiwatari
Tabbed by:ricknapalm
Last modified:2001-10-06
Print it:Original file (.TXT)
Burly Heart


Tune down 1 step and a half
Figure palm muting out yourself!

-------18---------------------------------
-17-18------------------------------------
------------------------------------------
------------------------------------------
------------------------------------------
------------------------------------------

Everyone's favorite riff (well mine at least)
--------------------------------------------------------------
--------------------------------------------------------------
--------------------------------------------------------------
--------5-7-----------3-5-3--------------5-7-----3-2----------
3-4-5-3-3-5-3-5-3-4-5-1-3-1-6----3-4-5-3-3-5-3-5--3-3-5-3-----
1-2-3-1-----1-3-1-2-3-------4----1-2-3-1-----1-3----------6-4-

Led zep riff (I think)
-----------------------------------------------
-----------------------------------------------
-----------------------------------------------
-----------------------------------------------
555-555-555-666-666-666-777-777-777-666-666-666
333-333-333-444-444-444-555-555-555-444-444-444

------------------------------------------
------------------------------------------
------------------------------------------
------------------------------------------
555-555-555-666-666-666-333----555--------
333-333-333-444-444-444-111...-333...-----

During the second time my fave riff is played...
------18-------20-------18----------------
-17-18---17-18----17-18-------------------
------------------------------------------
------------------------------------------
------------------------------------------
------------------------------------------

------------------------------------------
------------------------------------------
------------------------------------------
------------------------------------------
5555-6666-7777-8888-----------------------
3333-4444-5555-6666-----------------------


------------------------------------------
------------------------------------------
------------------------------------------
------------------------------------------
0-------------0---------------------------
--0-1-3-1-0-4-----------------------------

------------------------------------------
------------------------------------------
------------------------------------------
---------------------------------5-4-3-2--
7777-55-4-0-2-3-5-2-3-4-5-6-5-3--3-2-1-0--
5555-33-2----------------------3----------

VGJam Tabs Guilty Gear X - "Burly Heart"
Tabs database last modified Tuesday, 01-Nov-2016 19:14:53 UTC.
Copyright © 1999 - 2016 VideoGameJam.com. All rights reserved.