VGJam Tabs Dragon Seeds
Dragon Seeds
"Memory Forest" - Guitar tab
Platform(s):PlayStation
Tabbed by:PsoneRPG
Last modified:2008-03-13
Date added:2008-07-17
Print it:Original file (.TXT)
               DRAGON SEEDS - PSX - MEMORY FOREST

                 TABBED BY PsoneRPG


E|--3--8--15--13--18--15--|------------------------------|--3--8--15--13--18--15--|--
B|------------------------|--13--15--16--18--15--11--13--|------------------------|--
G|------------------------|------------------------------|------------------------|--
D|------------------------|------------------------------|------------------------|--
A|------------------------|------------------------------|------------------------|--
E|------------------------|------------------------------|------------------------|--

E|--------------15--13--18--20--|--
B|--13--15--16------------------|--
G|------------------------------|--
D|------------------------------|--
A|------------------------------|--
E|------------------------------|--

E|-----------------------------|-----------------------------|--------------------
B|-----------------------------|-----------------------------|--------------------
G|-----------------------------|-----------------------------|--------------------
D|-----------------------------|-----------------------------|-----------8--------
A|--10--13--15--13--10--8--10--|--10--13--15--13--10--8--10--|--8--5--8-----8--5--
E|-----------------------------|-----------------------------|--------------------

VGJam Tabs Dragon Seeds - "Memory Forest"
Tabs database last modified Tuesday, 01-Nov-2016 19:14:53 UTC.
Copyright © 1999 - 2016 VideoGameJam.com. All rights reserved.