VGJam Tabs Final Fantasy VII
Final Fantasy VII
"Ahead on Our Way" - Guitar tab
Platform(s):PlayStation
Composed by:Nobuo Uematsu
Soundtrack:Final Fantasy VII Original Sound Track (track D2-02)
Tabbed by:Vadim Nuniyants
Last modified:2001-04-22
Print it:Original file (.TXT)
Hear it:MIDI file
tabbed by: 
Vadim Nuniyants (vadimred13@hotmail.com)

------------------------------------------------------------------------
well this is my first (and hopefully not last) video game tab. this is
the song from kalm in final fantasy 7. actually, the correct way to play
this song would be in dropped D tuning, because when you play the notes
under any D chord, that first D is actually an octave lower. i left it
how it is because it doesnt make that big of a difference and is not
worth going through the hassle of retuning your guitar and playing the
notes that are on the E string 2 frets higher. anyways, it was worth
a mention. enjoy.
------------------------------------------------------------------------

gtr. 1 (rhythm) 
   G               Em              Am      D       Bm  
e----------3---------------0-------------0-------2---------2--------
B------0-------0-------0-------0-------1-------3-------3-------3----
G----0---0---0---0---0---0---0---0---2-------2-------4---4---4---4--
D------------------------------------------0------------------------
A----------------------------------0---------------2----------------
E--3---------------0------------------------------------------------
                  
gtr. 2 (lead)          
e--5-3-2-3-5-------2-0-0-----------0-7-5---5-----7-8-10-7-7---------
B----------------3-----------------------8--------------------------
G--------------4----------------------------------------------------
D-------------------------------------------------------------------
A-------------------------------------------------------------------
E-------------------------------------------------------------------

gtr. 1
   C       Cm7     G       Em      Am              Am      D   
e--------3-------3-------3-------0---------0-------------0-------2--
B------5-------4-------0-------0-------1-------1-------1-------3----
G----5-------3-------0-------0-------2---2---2---2---2-------2------
D----------------------------------------------------------0--------
A--3-------3-----------------------0---------------0----------------
E------------------3-------0----------------------------------------

gtr. 2 
e--7-8-7-5-------5-7-------2-0-------0-2-3-5-----------5-7-8--------
B----------8-----------3-----------------------------8--------------
G--------------------4---4------------------------------------------
D-------------------------------------------------------------------
A-------------------------------------------------------------------
E-------------------------------------------------------------------

gtr. 1
   G               Em              Am      D       Bm  
e----------3---------------0-------------0-------2---------2--------
B------0-------0-------0-------0-------1-------3-------3-------3----
G----0---0---0---0---0---0---0---0---2-------2-------4---4---4---4--
D------------------------------------------0------------------------
A----------------------------------0---------------2----------------
E--3---------------0------------------------------------------------

gtr. 2 (lead)          
e--5-3-2-3-5-------2-0-0-----------0-7-5---5-----7-8-10-7-7---------
B----------------3-----------------------8--------------------------
G--------------4----------------------------------------------------
D-------------------------------------------------------------------
A-------------------------------------------------------------------
E-------------------------------------------------------------------

gtr. 1
   C       Cm7     G       Em      Am      D       G               G 
e--------3-------3-------3-------0-------0-------2---------3---------------3--------
B------5-------4-------0-------0-------1-------3-------0-------0-------0-------0----
G----5-------3-------0-------0-------2-------2-------0---0---0---0---0---0---0---0--
D------------------------------------------0----------------------------------------
A--3-------3-----------------------0------------------------------------------------
E------------------3-------0-----------------------3---------------3----------------

gtr. 2 
e--7-8-7-5-------5-7-------2-0-----0-7-5---5-----2~--3~-------------
B----------8-----------3-----------------8--------------------------
G--------------------4---4------------------------------------------
D-------------------------------------------------------------------
A-------------------------------------------------------------------
E-------------------------------------------------------------------

gtr. 1
   G               Em              Am              Dsus4   D
e----------3---------------0---------------0-------------3-------2--
B------0-------0-------0-------0-------1-------1-------3-------3----
G----0---0---0---0---0---0---0---0---2---2---2---2---2-------2------
D--------------------------------------------------0-------0--------
A----------------------------------0--------------------------------
E--3---------------0------------------------------------------------

gtr. 2 
e-------------------------------------------------------------------
B-------------------------------------------------------------------
G--4-------------------------------5--------------------------------
D------------------4-------------------------------5-------4--------
A-------------------------------------------------------------------
E-------------------------------------------------------------------

gtr. 1
   Bm              Em              Am              Am      D7
e----------2---------------0---------------0---------------2--------
B------3-------3-------0-------0-------1-------1-------1-------1----
G----4---4---4---4---0---0---0---0---2---2---2---2---2---2---2---2--
D----------------------------------------------------------0--------
A--2-------------------------------0---------------0----------------
E------------------0------------------------------------------------

gtr. 2 
e----------2-----2-5-3-5-7---------0--------------------------------
B------3-----3-5-----------5---------0-1-----------------0-1---3-1--
G----4---4-------------------------------1-2---------1-2------------
D--2----------------------------------------------------------------
A-------------------------------------------------------------------
E-------------------------------------------------------------------

gtr. 1
   G               Em              Am              D7 
e----------3---------------0---------------0---------------2--------
B------0-------0-------0-------0-------1-------1-------1-------1----
G----0---0---0---0---0---0---0---0---2---2---2---2---2---2---2---2--
D--------------------------------------------------0----------------
A----------------------------------0--------------------------------
E--3---------------0------------------------------------------------

gtr. 2 
e------------------7---------------8---------8-5-------5------------
B--0-----------------8-7-5-7-8-5-----------------8-7-8--------------
G-------------------------------------------------------------------
D-------------------------------------------------------------------
A-------------------------------------------------------------------
E-------------------------------------------------------------------

VGJam Tabs Final Fantasy VII - "Ahead on Our Way"
Tabs database last modified Tuesday, 01-Nov-2016 19:14:53 UTC.
Copyright © 1999 - 2016 VideoGameJam.com. All rights reserved.