VGJam Tabs Final Fantasy VII
Final Fantasy VII
"Ahead on Our Way" - Guitar tab
Platform(s):PlayStation
Composed by:Nobuo Uematsu
Soundtrack:Final Fantasy VII Original Sound Track (track D2-02)
Tabbed by:Tang
Last modified:2002-07-01
Print it:Original file (.TXT)
Hear it:MIDI file
Ahead on Our Way
Game: Final Fantasy VII
Composed by: Nobuo Uematsu
Transcribed by: Tang (fot@tm.net.my)
Time Signature: 4/4
Album: Final Fantasy VII OST (Disc 2 - Track 2)

This is the peaceful music when you visited Kalm city, the city
you visit after you first appear on the world map. It's very
easy to play, and it's even more enjoyable when you play with the
soundtrack CD. I created this tab using Guitar pro 3. If you have 
the program 
and you want the gp3 version, contact me (fot@tm.net.my) 
and I'll send 
it to you. The gp3 version has all the complete instruments
as well. You can play this song while hearing the midi or the
soundtrack (Disc 2, track no.2). Enjoy!



E||---------------3-----------|--------------0-----------|
B||---------0-----------0-----|--------0-----------0-----|
G||*-----0-----0-----0-----0--|-----0-----0-----0-----0--|
D||*--------------------------|--------------------------|
A||---------------------------|--------------------------|
E||---3-----------------------|--0-----------------------|



-----------0-----------2--|--------------2-----------|
--------1-----------3-----|--------3-----------3-----|
-----2-----------2--------|-----4-----4-----4-----4--|
--------------0-----------|--------------------------|
--0-----------------------|--2-----------------------|
--------------------------|--------------------------|



-----------3-----------3--|-----------3-----------0--|
--------5-----------4-----|--------------------0-----|
-----4-----------3--------|--------4--------0--------|
--------------------------|-----5--------------------|
--3-----------3-----------|--------------------------|
--------------------------|--3-----------0-----------|



--------------0-----------|-----------------------2--|
--------1-----------1-----|-----------1--------1-----|
-----2-----2-----2-----2--|--------2--------2--------|
--------------------------|-----1--------0-----------|
--0-----------------------|--0-----------------------|
--------------------------|--------------------------|



--------------3-----------|--------------0-----------|
--------0-----------0-----|--------0-----------0-----|
-----0-----0-----0-----0--|-----0-----0-----0-----0--|
--------------------------|--------------------------|
--------------------------|--------------------------|
--3-----------------------|--0-----------------------|



-----------0-----------2--|--------------2-----------|
--------1-----------3-----|--------3-----------3-----|
-----2-----------2--------|-----4-----4-----4-----4--|
--------------0-----------|--------------------------|
--0-----------------------|--2-----------------------|
--------------------------|--------------------------|



-----------3-----------3--|-----------3-----------0--|
--------5-----------4-----|--------------------0-----|
-----4-----------3--------|--------4--------0--------|
--------------------------|-----5--------------------|
--3-----------3-----------|--------------------------|
--------------------------|--3-----------0-----------|



-----------0-----------2--|--------------3-----------|
--------1-----------3-----|--------0-----------0-----|
-----2-----------2--------|-----0-----0-----0-----0--|
--------------0-----------|--------------------------|
--0-----------------------|--------------------------|
--------------------------|--3-----------------------|



--------------3-----------|--------------3-----------|
--------0-----------0-----|--------0-----------0-----|
-----0-----0-----0-----0--|-----0-----0-----0-----0--|
--------------------------|--------------------------|
--------------------------|--------------------------|
--3-----------------------|--3-----------------------|



--------------0-----------|--------------0-----------|
--------0-----------0-----|--------1-----------1-----|
-----0-----0-----0-----0--|-----2-----2-----2-----2--|
--------------------------|--------------------------|
--------------------------|--0-----------------------|
--0-----------------------|--------------------------|



-----------3-----------2--|--------------2-----------|
--------1-----------1-----|--------3-----------3-----|
-----2-----------2--------|-----4-----4-----4-----4--|
--0-----------0-----------|--------------------------|
--------------------------|--2-----------------------|
--------------------------|--------------------------|



--------------0-----------|--------------0-----------|
--------0-----------0-----|--------1-----------1-----|
-----0-----0-----0-----0--|-----2-----2-----2-----2--|
--------------------------|--------------------------|
--------------------------|--0-----------------------|
--0-----------------------|--------------------------|



--------------2-----------|--------------3-----------|
--------1-----------1-----|--------0-----------0-----|
-----2-----2-----2-----2--|-----0-----0-----0-----0--|
--0-----------------------|--------------------------|
--------------------------|--------------------------|
--------------------------|--3-----------------------|



--------------0-----------|--------------0-----------|
--------0-----------0-----|--------1-----------1-----|
-----0-----0-----0-----0--|-----2-----2-----2-----2--|
--------------------------|--------------------------|
--------------------------|--0-----------------------|
--0-----------------------|--------------------------|



--------------2------------||
--------1-----------1------||
-----2-----2-----2-----2--*||
--0-----------------------*||
---------------------------||
---------------------------||


* repeat

VGJam Tabs Final Fantasy VII - "Ahead on Our Way"
Tabs database last modified Tuesday, 01-Nov-2016 19:14:53 UTC.
Copyright © 1999 - 2016 VideoGameJam.com. All rights reserved.