VGJam Tabs Final Fantasy VII
Final Fantasy VII
"Farm Boy" - Guitar tab
Platform(s):PlayStation
Composed by:Nobuo Uematsu
Soundtrack:Final Fantasy VII Original Sound Track (track D2-05)
Tabbed by:Tang
Last modified:2002-07-01
Print it:Original file (.TXT)
Hear it:MIDI file
Farm Boy
Game: Final Fantasy VII
Composed by: Nobuo Uematsu
Transcribed by: Tang (fot@tm.net.my)
Time Signature: 4/4
Album: Final Fantasy VII OST (Disc 2 - Track 5)

This is the music when you visited the chocobo farm in ff7.
I created this tab using Guitar pro 3. If you have the program and 
you 
want the gp3 version, contact me (fot@tm.net.my) and I'll 
send it to you. 
The gp3 version has all the complete instruments
as well. You can play this song while hearing the midi or the
soundtrack (Disc 2, track no.5). Enjoy!


Acoustic steel guitar


E||--------2-----2-----|--------0-----0-----|--------3-----3-----|
B||--------3-----3-----|--------1-----1-----|--------0-----0-----|
G||-----2-----2-----2--|-----0-----0-----0--|-----0-----0-----0--|
D||--0-----------------|--------------------|--------------------|
A||--------------------|--3-----------------|--------------------|
E||--------------------|--------------------|--3-----------------|



--------3-----3-----|--------2-----2-----|--------0-----0-----|
--------0-----0-----|--------3-----3-----|--------1-----1-----|
-----0-----0-----0--|-----2-----2-----2--|-----0-----0-----0--|
--------------------|--0-----------------|--------------------|
--------------------|--------------------|--3-----------------|
--3-----------------|--------------------|--------------------|



--------3-----3-----|--------3-----3-----|--------3-----3-----|
--------0-----0-----|--------0-----0-----|--------0-----0-----|
-----0-----0-----0--|-----0-----0-----0--|-----0-----0-----0--|
--------------------|--------------------|--------------------|
--------------------|--------------------|--------------------|
--3-----------------|--3-----------------|--3-----------------|



--------3-----3-----|--------0-----0-----|--------0-----0-----|
--------0-----0-----|--------1-----1-----|--------2-----2-----|
-----0-----0-----0--|-----0-----0-----0--|-----0-----0-----0--|
--------------------|--------------------|--------------------|
--------------------|--3-----------------|--0-----------------|
--1-----------------|--------------------|--------------------|



--------3-----3-----|--------0-----0-----|--------0-----0-----|
--------0-----0-----|--------0-----0-----|--------1-----1-----|
-----0-----0-----0--|-----0-----0-----0--|-----2-----2-----2--|
--------------------|--------------------|--------------------|
--------------------|--------------------|--0-----------------|
--3-----------------|--0-----------------|--------------------|



--------2-----2-----|--------3-----3-----|--------3-----3-----|
--------1-----1-----|--------0-----0-----|--------0-----0-----|
-----2-----2-----2--|-----0-----0-----0--|-----0-----0-----0--|
--0-----------------|--------------------|--------------------|
--------------------|--------------------|--------------------|
--------------------|--3-----------------|--1-----------------|



--------0-----0-----|--------0-----0-----|--------3-----3-----|
--------1-----1-----|--------2-----2-----|--------0-----0-----|
-----0-----0-----0--|-----0-----0-----0--|-----0-----0-----0--|
--------------------|--------------------|--------------------|
--3-----------------|--0-----------------|--------------------|
--------------------|--------------------|--3-----------------|



--------0-----0-----|--------3-----3-----|--------3-----3-----|
--------1-----1-----|--------0-----0-----|--------0-----0-----|
-----0-----0-----0--|-----0-----0-----0--|-----0-----0-----0--|
--------------------|--------------------|--------------------|
--3-----------------|--------------------|--------------------|
--------------------|--3-----------------|--3-----------------|



--------3-----3-----|--------3-----3-----|--------0-----0-----|
--------0-----0-----|--------0-----0-----|--------1-----1-----|
-----0-----0-----0--|-----0-----0-----0--|-----0-----0-----0--|
--------------------|--------------------|--------------------|
--------------------|--------------------|--3-----------------|
--3-----------------|--1-----------------|--------------------|



--------0-----0-----|--------3-----3-----|--------2-----2-----|
--------1-----1-----|--------4-----4-----|--------1-----1-----|
-----0-----0-----0--|-----5-----5-----5--|-----2-----2-----2--|
--------------------|--------------------|--0-----------------|
--3-----------------|--0-----------------|--------------------|
--------------------|--------------------|--------------------|



--------3-----3-----|--------3-----3-----|--------0-----0-----|
--------0-----0-----|--------0-----0-----|--------0-----0-----|
-----0-----0-----0--|-----0-----0-----0--|-----0-----0-----0--|
--------------------|--------------------|--------------------|
--------------------|--------------------|--------------------|
--3-----------------|--3-----------------|--0-----------------|



--------2-----2-----|--------0-----0-----|--------2-----2-----|
--------3-----3-----|--------0-----0-----|--------3-----3-----|
-----4-----4-----4--|-----0-----0-----0--|-----4-----4-----4--|
--------------------|--------------------|--------------------|
--2-----------------|--------------------|--2-----------------|
--------------------|--0-----------------|--------------------|



--------0-----0-----|--------0-----0-----|--------3-----3-----|
--------1-----1-----|--------2-----2-----|--------1-----1-----|
-----0-----0-----0--|-----0-----0-----0--|-----2-----2-----2--|
--------------------|--------------------|--0-----------------|
--3-----------------|--0-----------------|--------------------|
--------------------|--------------------|--------------------|



--------2-----2-----|--------3-----3-----|--------3-----3-----|
--------1-----1-----|--------0-----0-----|--------0-----0-----|
-----2-----2-----2--|-----0-----0-----0--|-----0-----0-----0--|
--0-----------------|--------------------|--------------------|
--------------------|--------------------|--------------------|
--------------------|--3-----------------|--1-----------------|



--------0-----0-----|--------0-----0-----|--------3-----3-----|
--------1-----1-----|--------2-----2-----|--------0-----0-----|
-----0-----0-----0--|-----0-----0-----0--|-----0-----0-----0--|
--------------------|--------------------|--------------------|
--3-----------------|--0-----------------|--------------------|
--------------------|--------------------|--3-----------------|



--------0-----0-----|--------3-----3-----|--------3-----3-----||
--------1-----1-----|--------0-----0-----|--------0-----0-----||
-----0-----0-----0--|-----0-----0-----0--|-----0-----0-----0--||
--------------------|--------------------|--------------------||
--3-----------------|--------------------|--------------------||
--------------------|--3-----------------|--3-----------------||

B||---5----5-------5----5--|-----5----5-------5----|
G||*--5----5-------5----5--|-----5----5-------5----|
D||*-----------------------|--0----------0---------|
A||---0---------0----------|-----------------------|  x6
E||------------------------|-----------------------|



--1----1-------1----0--|-----0----0-------0----|
--3----3-------3----3--|-----3----3-------3----|
--3----3-------3----3--|-----3----3-------3----|
-----------------------|-----------------------|
-----------------------|--3----------3---------|  x2
--3---------3----------|-----------------------|



--3----3-------3----2--|-----2----2-------2----|
--5----5-------5----5--|-----5----5-------5----|
--5----5-------5----5--|-----5----5-------5----|
-----------------------|--0----------0---------|
--0---------0----------|-----------------------|  x2
-----------------------|-----------------------|



--1----1-------1----0--|-----0----0-------0----|
--3----3-------3----3--|-----3----3-------3----|
--3----3-------3----3--|-----3----3-------3----|
-----------------------|-----------------------|
-----------------------|--3----------3---------|  x2
--3---------3----------|-----------------------|



--0----0-------0----1--|-----1----1-------1----|
--1----1-------1----3--|-----3----3-------3----|
--2----2-------2----2--|-----2----2-------2----|      here comes the tricky part,
-----------------------|-----------------------|      try to change ur fingers as
-----------------------|--1----------1---------|  x2  quickly as possible!
--1---------1----------|-----------------------|      



--2----2-------2----3--|-----3----3-------3---||
--3----3-------3----5--|-----5----5-------5---||
--4----4-------4----6--|-----6----6----------*||
-----------------------|---------------------*||
-----------------------|--0----------0--------||  x2
--3---------3----------|----------------------||


* repeat

VGJam Tabs Final Fantasy VII - "Farm Boy"
Tabs database last modified Tuesday, 01-Nov-2016 19:14:53 UTC.
Copyright © 1999 - 2016 VideoGameJam.com. All rights reserved.