VGJam Tabs Final Fantasy VII
Final Fantasy VII
"Costa Del Sol" - Guitar tab
Platform(s):PlayStation
Composed by:Nobuo Uematsu
Soundtrack:Final Fantasy VII Original Sound Track (track D2-16)
Tabbed by:Tang
Last modified:2002-07-01
Print it:Original file (.TXT)
Hear it:MIDI file
Costa Del Sol
Game: Final Fantasy VII
Composed by: Nobuo Uematsu
Transcribed by: Tang (fot@tm.net.my)
Time Signature: 4/4
Album: Final Fantasy VII OST (Disc 2 - Track 16)

This is a very cool music from ff7! Most of the part isn't hard
but the last part is a bit tricky. I created this tab using 
Guitar pro 3. If you have the program and you want the gp3 version, 
contact me (fot@tm.net.my) and I'll send it to you. The gp3 version 
has all the complete instruments as well. You can play this song while 
hearing the midi or the soundtrack (Disc 2, track no.16). Enjoy!


Nylon Guitar


E||---3----3-------3----2--|-----2----2-------2----|
B||---5----5-------5----5--|-----5----5-------5----|
G||*--5----5-------5----5--|-----5----5-------5----|
D||*-----------------------|--0----------0---------|
A||---0---------0----------|-----------------------|  x6
E||------------------------|-----------------------|


--1----1-------1----0--|-----0----0-------0----|
--3----3-------3----3--|-----3----3-------3----|
--3----3-------3----3--|-----3----3-------3----|
-----------------------|-----------------------|
-----------------------|--3----------3---------|  x2
--3---------3----------|-----------------------|


--3----3-------3----2--|-----2----2-------2----|
--5----5-------5----5--|-----5----5-------5----|
--5----5-------5----5--|-----5----5-------5----|
-----------------------|--0----------0---------|
--0---------0----------|-----------------------|  x2
-----------------------|-----------------------|


--1----1-------1----0--|-----0----0-------0----|
--3----3-------3----3--|-----3----3-------3----|
--3----3-------3----3--|-----3----3-------3----|
-----------------------|-----------------------|
-----------------------|--3----------3---------|  x2
--3---------3----------|-----------------------|


--0----0-------0----1--|-----1----1-------1----|
--1----1-------1----3--|-----3----3-------3----|  here comes the tricky part,
--2----2-------2----2--|-----2----2-------2----|  try to change ur fingers as
-----------------------|-----------------------|  quickly as possible!
-----------------------|--1----------1---------|  x2
--1---------1----------|-----------------------|      


--2----2-------2----3--|-----3----3-------3---||
--3----3-------3----5--|-----5----5-------5---||
--4----4-------4----6--|-----6----6----------*||
-----------------------|---------------------*||
-----------------------|--0----------0--------||  x2
--3---------3----------|----------------------||


* repeat

VGJam Tabs Final Fantasy VII - "Costa Del Sol"
Tabs database last modified Tuesday, 01-Nov-2016 19:14:53 UTC.
Copyright © 1999 - 2016 VideoGameJam.com. All rights reserved.